E-Chords
Ballyhoo

Longshot (solo)(Tabs)

Ballyhoo

roll up this ad to continue

Key: G
		 

------------------------------------------------| 
------------------------------------------------| 
------------------------------------------------| 
----11--14--14/16/14---14--11--14---------------| 
-12-------------------------------12------------| 
------------------------------------------------| 



-------------------------------------------------| 
-------------------------------------------------| 
-------------------------------------------------| 
----12/14/12--12--11--12/14/12--12--11--12--11---| 
12--------------------------------------------12-| 
-------------------------------------------------| 



------------------------------------------------| 
------------------------------------------------| 
----------14/16/14-14---------------------------| 
---11--14-------------14/16/14--14--12----------| 
12-------------------------------------12-------| 
------------------------------------------------| 



------------------------------------------------| 
------------------------------------------------| 
------14--16------------------------------------| 
14/16--------15--14-----------------------------| 
------------------------------------------------| 
------------------------------------------------| 
share this page

See Also: