E-Chords
Backyard Babies

The Clash(Tabs)

Backyard Babies

roll up this ad to continue

Key: C#m
Tabbed by: Andy Wilson

Intro:

Rythm:
e|------------------------|
B|------------------------|
G|------------------------|
D|------------------------|
A|-4--4--4--4--4--4--4--4-|
E|-2--0--2--0--2--0--2--0-|

Lead:
e|------------------------|
B|------------------------|
G|-6--4--6--4--6--4--6--4-|
D|------------------------|
A|------------------------|
E|------------------------|

   C#m		 E	    B		    F#
e|------------------------|-------------------------------|
B|-5-4--------------------|-5-4-4-5-5-7-7--5-5-4-5-4------|
G|-------6--4-6-6---------|---------------------------4-6-|
D|------------------------|-------------------------------|
A|------------------------|-------------------------------|
E|------------------------|-------------------------------|

Verse:
   C#m		 E	    B		    F#

Brideriff:
   2x
e|------------------|------------------------|
B|------------------|---5--4---5--4---5--4---|
G|------------------|--------4------4------4-|
D|------------------|------------------------|
A|-4--4--4----------|------------------------|
E|-2--2--0--2-3-2-0-|------------------------|

   F#m		 C#m	    B		  A  x2

   2x  B	B
share this page

See Also: