E-Chords
Backyard Babies

Star War(Tabs)

Backyard Babies

roll up this ad to continue

Key: B
TabbeD by: Andi Fässler ([email protected])

To be honest I got a little pissed off retipping every single part of the song, so I 
started to write it in chords, hope you don't mind!


Key:  H - hammer-on
      / - slide




Intro
======

E|---------------------------------------------|
B|---------------------------------------------|
G|---------------------------------------------|
D|-----------9---7----------9-------7----------|
A|--------9----9---------9-----7H9-------------|
E|---5/7-------------5/7-----------------------|


Main Riff
=========

(Dregen)
E|----------------------------------------------------------------------------|
B|---------10-------------------10-----12-----------10------------------------|
G|---9H11-----11--9------9--11------9---------9H11-----11--9------------------|
D|-------------------11------------------------------------------9--7---------|
A|---------------------------------------------------------------7--5--9------|
E|---------------------------------------------------------------------7------|

(Nicke)
E|----------------------------------------------------------------------------|
B|----------------------------------------------------------------------------|
G|----------------------------------------------------------------------------|
D|--------------------------------------------7--7--------------9--7----------|
A|------9---9--9--9---9--9---9--9--9--9-------5--5----7--7------7--5--9-------|
E|------7---7--7--7---7--7---7--7--7--7---------------5--5-------------7------|



Verses (in chords)
====================

B
Everybody's here with a face in the crowd
D  D    A  A    B
no more lookin' back....


E
I don't neeD no doctor
D                A        B
no one's got the cure for me
E
Cause I'm a hearbreaker anD a a soulshaker
      F# 
since 1973



Solo part (in chords)
=====================

A B  D E E
A B  D E
A B  D E  E D B


D                                            B
fooD on the table the money if you're able
B                                            F#
meanwhile back in jack n' coke stable
share this page

See Also: