E-Chords
Babys

Midnight Rendevous(Tabs)

Babys

roll up this ad to continue

Key: C5
Tabbed by: JM Hendrick 
Email: [email protected] 
 
Tuning:Standard 
 
 
INTRO: 
|-------------0---------------------------0----------------| 
|-----------------3--------------------------3-------------| 
|---------------------2---1---------------------2---1------| 
|------------------------------2-----------------------2---| 
|----------------------------------------------------------| 
|---------0------------------------------------------------| 
 
|------------0------------------------------| 
|-----------------3-------------------------| 
|--------------------2---2--0--2--2---------| 
|------------------------2--0--2--2---------| 
|---------------------------2--4--4---------| 
|-------------------------------------------| 
 
VERSE: 
|-----------------------------------------------------------| 
|-----------------------------------------------------------| 
|-----------------------------------------------------------| 
|-2-2-2-2-2-2-2-2-2-2-2-2-2-0-9-9-9-2-2-2-2-2-2-2-2-2-2-2-2-| 
|-2-2-2-2-2-2-2-2-2-2-2-2-2-0-7-7-7-2-2-2-2-2-2-2-2-2-2-2-2-| 
|-0-0-0-0-0-0-0-0-0-0-0-0-0---------0-0-0-0-0-0-0-0-0-0-0-0-| 
1. Driving faster than you want me to... 
2. On the freeway with the throttle down... 
 
|----------------------------------------------------------------| 
|----------------------------------------------------------------| 
|-------7--7----------7--2----0---2---2---4---5---4---2----2-----| 
|----4--4--4----2--4--4--2----0---2---2---4---5---4---2----2-----| 
|----------------------------------------------------------------| 
|----------------------------------------------------------------| 
1. Alright                    Alright 
2. Alright                    All night 
 
 
|-----------------------------------------------------------| 
|-----------------------------------------------------------| 
|-----------------------------------------------------------| 
|-2-2-2-2-2-2-2-2-2-2-2-2-2-0-9-9-9-2-2-2-2-2-2-2-2-2-2-2-2-| 
|-2-2-2-2-2-2-2-2-2-2-2-2-2-0-7-7-7-2-2-2-2-2-2-2-2-2-2-2-2-| 
|-0-0-0-0-0-0-0-0-0-0-0-0-0---------0-0-0-0-0-0-0-0-0-0-0-0-| 
1. I've passed the limit and there's no way back... 
2. The way you look tonight you aim to please... 
 
 
|----------------------------------------------------------------| 
|----------------------------------------------------------------| 
|-------7--7----------7--2----0--4-4-4-4-4-4-4-4-4-4-4-4-4-4-4-4-| 
|----4--4--4----2--4--4--2----0--4-4-4-4-4-4-4-4-4-4-4-4-4-4-4-4-| 
|--------------------------------2-2-2-2-2-2-2-2-2-2-2-2-2-2-2-2-| 
|----------------------------------------------------------------| 
    Alright                   Alright       Cause baby can't you see..... 
 
 
CHORUS: 
 
    C5                              D5 
|-------------------------------------------------------------------| 
|-------------------------------------------------------------------| 
|---5-5-5-5-5-5-5-5-5-5-5-5-5-5-5-5-7-7-7-7-7-7-7-7-7-7-7-7-7-7-7-7-| 
|---5-5-5-5-5-5-5-5-5-5-5-5-5-5-5-5-7-7-7-7-7-7-7-7-7-7-7-7-7-7-7-7-| 
|---3-3-3-3-3-3-3-3-3-3-3-3-3-3-3-3-5-5-5-5-5-5-5-5-5-5-5-5-5-5-5-5-| 
|-------------------------------------------------------------------| 
We need to spend some time alone    We need to see some dreams come true 
    C5                              D5 
|-------------------------------------------------------------------| 
|-------------------------------------------------------------------| 
|---5-5-5-5-5-5-5-5-5-5-5-5-5-5-5-5-7-7-7-7-7-7-7-7-7-7-7-7-7-7-7-7-| 
|---5-5-5-5-5-5-5-5-5-5-5-5-5-5-5-5-7-7-7-7-7-7-7-7-7-7-7-7-7-7-7-7-| 
|---3-3-3-3-3-3-3-3-3-3-3-3-3-3-3-3-5-5-5-5-5-5-5-5-5-5-5-5-5-5-5-5-| 
|-------------------------------------------------------------------| 
 I wanna feel me touching you       We need a midnight rendevous 
 
 
OUTRO: 
|-----------------------------------------------| 
|--------------------3------2------2------------| 
|--------------------4------2------3------------| 
|------------2------2------2------4-------------| 
|---2---4---------------------------------------| 
|-----------------------------------------------| 
Midnight        midnight rendevous 
 
INTRO (X2) 
VERSE (X2) 
CHORUS 
INTRO 
VERSE (X2) 
INTRO (X2) 
OUTRO 
 
That's all of it.Enjoy! 
============================================================================ 
share this page

See Also: