E-Chords
Azul Violeta

Tu Luz(Tabs)

Azul Violeta

Key: A
Transcrita por Kaleb Encorrada 

b   =  Bend 
r   =  Release 
/   =  Slide up 
\   =  Slide down 
br  =  Vibrar 

Figura 1 
e|---------------------------------------------------| 
B|---0----0------0---0-------0----0-----0-----0------| 
G|--0-0--0-0----0-0-0-0-----0-0--0-0---0-0---0-0-----| 
D|---------------------------------------------------| 
A|-5----5---5--4---4----4--3----3---3--5----5-----5--| 
E|---------------------------------------------------| 

Riff 1 
e|-------10\9-9\8-8\7--| 
B|--7/8br--------------| 
G|---------------------| 
D|---------------------| 
A|---------------------| 
E|---------------------| 

Riff 2 
e|-------10\9------------12b-12\10-10\7-7\5-5/7-7--| 
B|-7/8br-------8/10 10\8---------------------------| 
G|-------------------------------------------------| 
D|-------------------------------------------------| 
A|-------------------------------------------------| 
E|-------------------------------------------------| 

Riff 3 
e|-7---5xx--3-------15b17r15b17r15b17r15b17r15-----| 
B|-8---5xx--3--------------------------------------| 
G|-9-----------------------------------------------| 
D|-------------------------------------------------| 
A|-------------------------------------------------| 
E|-------------------------------------------------| 

Riff 4 
e|-12\10--12\10--12\10--10/12--| 
B|-----------------------------| 
G|-----------------------------| 
D|-----------------------------| 
A|-----------------------------| 
E|-----------------------------| 

Riff 5 
e|-----3\2---------------------|-----3\2---------------------| 
B|-3/5------3/5--3-------------|-3/5------3/5--5/8-----------| 
G|-----------------------------|-----------------------------| 
D|-----------------------------|-----------------------------| 
A|-----------------------------|-----------------------------| 
E|-----------------------------|-----------------------------| 

e|-----3\2---------------------|-----3\2---------------------| 
B|-3/5------5\3--3/5--5--5\3---|-3/5----------3/5-----5/8----| 
G|-----------------------------|-----------------------------| 
D|-----------------------------|-----------------------------| 
A|-----------------------------|-----------------------------| 
E|-----------------------------|-----------------------------| 

e|-----3\2---5--5\3------------| 
B|-3/5-------------------------| 
G|-----------------------------| 
D|-----------------------------| 
A|-----------------------------| 
E|-----------------------------| 

Riff 6 
e|-17-17-\15-15-\12-12/15-12-12\10-10/12\10---| 
B|--------------------------------------------| 
G|--------------------------------------------| 
D|--------------------------------------------| 
A|--------------------------------------------| 
E|--------------------------------------------| 


{Fig 1.} 
Tres más y once meses pa' llegar  
hasta el final de un milenio más  
de cohabitar el mundo 
Todo paso fugaz frente de mi un siglo atrás  
vivian a otro ritmo, vivian a otro ritmo yeah 

(Riff 1) 


{Fig 1.} 
Hoy busco la raíz para amarrar mis sueños a un nuevo Dios 
que me permita ser felíz 
Porque para seguir viviendo aqui se necesitan horizontes 
amplios para encontrar la puerta 


A                      C 
Para corregir la ruta no queremos otra guerra 
B            Em 
queremos tu luz  (Riff 3) 
A                      C 
Para disfrutar la vida no queremos más dinero 
B         Em 
queremos amor   (Riff 3) 


{Fig 1.} 
Dormí lo suficiente es hora ya de despertar para 
iniciar la búsqueda 
de una razón para vivir   (Riff 4) 
Contemplo la caida que al final me llevara a renacer 
con sangre nueva 


A                      C 
Para corregir la ruta no queremos otra guerra 
B            Em 
queremos tu luz 
A                      C 
Para disfrutar la vida no queremos más dinero 
B         Em 
queremos amor 


(Riff 5) 
C      B             Em 
La conciencia no me basta no, no me basta 
C      B             Em 
La inocencia me confunde, me confunde 
       B             Em 
La conciencia no me basta no, no me basta no 
C      B             Em 
La paciencia se me acaba, se me acaba 


{Fig 1.} (Riff 6) 
Da,da,da,da,da,da,da,da,da,da,da,da,da,da,da,da,da 
(Dame serenidad) 
(Para aceptar) 
(Dame amor) 
(Para cambiar) 
(Dame serenidad) 
(Para aceptar...) 

Es la versión correcta. Dudas, sugerencias o comentarios 
manden mail a [email protected]

roll up this ad to continue

share this page

See Also: