E-Chords
Azul Violeta

Luna(Tabs)

Azul Violeta

Key: Fm7
Intro 
el bajo entra hasta que empieza la voz  
y se debe marcar el primer tiempo 
Verso: 
      Fm7               Bbm7 
G|----------------|-------------| 
D|----------------|-----3-1-----| 
A|-----3-1--------|1--1-----3-1-| 
E|1--1-----3-1--4-|-------------| 

Coro: 
       Am7             Dm7 
G|----------------|-------------| 
D|----------------|-----7-5-----| 
A|-----7-5--------|5--5-----7-5-| 
E|5--5-----7-5--8-|-------------| 

nota: El Dm7 se puede variar de las siguientes formas 

      Dm7 
G|------------| 
D|--------567-| 
A|5--5555-----| 
E|------------| 

      Dm7 
G|-----------7-5-| 
D|-------5/9-----| 
A|5--5555--------| 
E|---------------| 

Intercalando los Dm7 con un dos tiempos 
de descanso de Dm7 de la siguiente forma 

      Dm7 
G|-------------| 
D|-------5-5-5-| 
A|5--555-------| 
E|-------------| 

Y en el puente se usan los acordes del coro 
pero puedes improvisar con la escala menor de 
Dm o con una escala Blues de Dm7 o hacer los  
mismo que en el verso 

Bueno esos es todo recuerden marcar el tiempor uno  
que en el Funk es el mas importante 

Recuerde la musica es cultura practiquenla y difundanla

roll up this ad to continue

share this page

See Also: