E-Chords
Awolnation

Soul Wars(Tabs)

Awolnation

roll up this ad to continue

Key: Db
Tuning:  Db  Ab  Db  Gb   Bb  Eb  

Intro 

|-----------------------------------------| 
|-12~------------------12~----------------| 
|-11~------------------12~----------------| 
|-9~-------------------9~-----------------| 
|-9~-------------------10~----------------| 
|-9~-------------------9~-----------------| 

Verse 

eb|-----------------------------------------------------------------| 
Bb|-----------------------------------------------------------------| 
Gb|-----------------------------------------------------------------| 
Db|-----------------------------------------------------------------| 
Ab|---2---2---2---2---2---2---0---0---2---2---2---2---2---2---0---0-| 
Bb|-0---0---0---0---0---0---0---0---0---0---0---0---0---0---0---0---| 

eb|-----------------------------------------------------------------| 
Bb|-----------------------------------------------------------------| 
Gb|-----------------------------------------------------------------| 
Db|---------------------------2-------------------------------------| 
Ab|-------------------------------5---2---2---2---2---2---2---0---0-| 
Bb|-5-5---5-5-5---5-5-5---5-3---3---0---0---0---0---0---0---0---0---| 

 
|-----------------------------------------------------------------| 
|-----------------------------------------------------------------| 
|-----------------------------------------------------------------| 
|-----------------------------------------------------------------| 
|---2---2---2---2---2---2---0---0---2---2---2---2---2---2---0---0-| 
|-0---0---0---0---0---0---0---0---0---0---0---0---0---0---0---0---| 

|-----------------------------------------------------------------| 
|-----------------------------------------------------------------| 
|-----------------------------------------------------------------| 
|---------------------------2-------------------------------------| 
|-------------------------------5---2---2---2---2---2---2---0---0-| 
|-2-2---2-2-2---2-2-2---2-2---2---0---0---0---0---0---0---0---0---| 


|-11~---------------------12------11~-----------------------------| 
|-x-----------------------x-------x-------------------------------| 
|-8~----------------------9-------8~------------------------------| 
|-----------------------------------------------------------------| 
|-----------------------------------------------------------------| 
|-----------------------------------------------------------------| 

|-12~---------------14----12------11~-----------------------------| 
|-x-----------------x-----x-------x-------------------------------| 
|-9~----------------11----9-------8~------------------------------| 
|-----------------------------------------------------------------| 
|-----------------------------------------------------------------| 
|-----------------------------------------------------------------| 

|-12~---------------14----12------11~-----------------------------| 
|-x-----------------x-----x-------x-------------------------------| 
|-9~----------------11----9-------8~----------------8/////////----| 
|-----------------------------------------------------------------| 
|-----------------------------------------------------------------| 
|-----------------------------------------------------------------| 



Chorus
 
4x 
|-----------------------------------------------------------------| 
|-----------------------------------------------------------------| 
|-----------------------------------------------------------------| 
|-----------------------------------------------------------0---0-| 
|-2---2-0-2-5-2-0-2---2-0-2-5-2-0-2---2-0-2-5-2-0-2---2-0-2---2---| 
|-----------------------------------------------------------------| 

|-----------------------------------------------------------------| 
|-----------------------------------------------------------------| 
|-----------------------------------------------------------------| 
|-2--2-0-2-4-2-0-2----2-0-2-4-2-0---------------------------------| 
|---------------------------------2---2-0-2-5-2-0-2---2-0-2-5-2-0-| 
|-----------------------------------------------------------------| 

Swells 2nd time through Chorus 
|-7-----------11----------------------------------------------------------| 
|-x-----and---x-----------------------------------------------------------| 
|-4-----------8-----------------------------------------------------------| 
|-------------------------------------------------------------------------| 
|-------------4th time----------------------------------------------------| 
|-------------------------------------------------------------------------| 


Little Synth thing 
|---------------------------------| 
|---------------------------------| 
|---------------------------------| 
|---------------------------------| 
|-14-14-14\\\\\/////14-14-14\\\\\-| 
|---------------------------------| 



Second Verse 

Riff with Delay effect 
|-12-----15-----12-----10-----7-----| 
|-----------------------------------| 
|-----------------------------------| 
|-----------------------------------| 
|-----------------------------------| 
|-----------------------------------| 



Bridge 
|-----------------------------------| 
|-----------------------------------| 
|---------4-----------------4-4-4-4-| 
|-----------------------------------| 
|-----2-----2-----2---2---x---------| 
|-----------------------------------| 

Layered on top when the ?Hoo, Haa?s come in 
|---------7-7-----7-7-------7-7-7-7-| 
|---------x-x-----x-x-------x-x-x-x-| 
|---------4-4-----4-4-------4-4-4-4-| 
|-----------------------------------| 
|-----------------------------------| 
|-----------------------------------| 

At 2:32 and 2:43 
|-1010----1212----12121212-| 
|-x-x-----x-x-----x-x-x-x--| 
|-7-7-----9-9-----9-9-9-9--| 
|--------------------------| 
|--------------------------| 
|--------------------------| 

Repeat Chorus 
share this page

See Also: