E-Chords
Awolnation

Mf(Tabs)

Awolnation

roll up this ad to continue

Key: Db
Tuning Drop: D

Intro 
|-----------------------------------------------------------------|  
|-----------------------------------------------------------------| 
|-----------------------------------------------------4-----------| 
|-2---------------2---------------2---------------2---4---5---0---|  
|-2---------------2---------------2---------------2---2---5---0---| 
|-2---------------2---------------2---------------2-------5---0---| 

Then 2x 
|-----------------------------------------------------------------|  
|-----------------------------------------------------------------| 
|-----------------------------------------------------4-----------| 
|-2---------------2---------------2---------------2---4---5---0---|  
|-2---------------2---------------2---------------2---2---5---0---| 
|-2---2222222-----2---2222222-----2---2222222-----2-------5---0---| 
      PM|----         -------         ------- 
                                  Electronic beat during cadences:	 
|-----------------------------------------------------------------|  
|-----------------------------------------------------------------| 
|-------------------------------------------------9999999999999999| 
|-----------------------------------------------------------------|  
|-----------------------------------------------------------------| 
|-----------------------------------------------------------------| 


Verse 
|-----------------------------------------------------------------|  
|-----------------------------------------------------------------| 
|-----------------------------------------------------4-----------| 
|-2---------------2-------555-2---2---------------2---4---5---0---|  
|-2---------------2-------------2-2---------------2---2---5---0---| 
|-2---------------2---------------2---------------2-------5---0---| 


Chorus 
|-----------------------------------------------------------------|  
|-----------------------------------------------------------------| 
|-----------------------------------------------------4-----------| 
|-2---------------2---------------2---------------2---4---5---0---|  
|-2---------------2---------------2---------------2---2---5---0---| 
|-2---2222222-----2---2222222-----2---2222222-----2-------5---0---| 
      PM|----         -------         ------- 
Choir 
|-----------------------------------------------------------------|  
|-----------------------------------------------------------------| 
|-13~-------------14~-------------13~-------------14~-------------| 
|-x---------------x---------------x---------------x---------------|  
|-11~-------------12~-------------11~-------------12~-------------| 
|-----------------------------------------------------------------| 

Bridge 
Synth/Keys 
|------------------------------------------------------------10-101010-1010-|  
|---------------------------------------------------------------------------| 
|-9---9---9---9-12p9---9---9---9-12p9---9---9---9-12p9---9---7------7-------| 
|---------------------------------------------------------------------------|  
|---------------------------------------------------------------------------| 
|---------------------------------------------------------------------------| 

Outro 
|-----------------------------------------------------------------|  
|-----------------------------------------------------------------| 
|-----------------------------------------------------------------| 
|-2-------5---0---2-------5---0---2-------5---0---2-------5---0---|  
|-2---22225---0---2---22225---0---2---22225---0---2---22225---0---| 
|-2-------5---0---2-------5---0---2-------5---0---2-------5---0---| 

 
share this page

See Also: