E-Chords
Atreyu

Shameful(Tabs)

Atreyu

roll up this ad to continue

Intro 
-------------------------------------------------| 
-------------------------------------------------| 
------777-----777----7---7-----777-----777-------| 
--000-----000-----00---0---000-----000-----00000-| 
--000-555-000-555-00-5-0-5-000-555-000-555-00000-| 
--000-----000-----00---0---000-----000-----00000-| 
                           ... 
guitar 2 
--------------------------------------------------------| 
--------------------------------------------------------| 
-------------------------------101010-----101010--------| 
---------------------------000--------000--------00000--| 
---------------------------000--8-8-8-000--8-8-8-00000--| 
---------------------------000--------000--------00000--| 
                           ... 
---------------------------| 
---------------------------| 
-3333-3--------------------| 
-3333-3-5555-5-------------| 
-1111-1-5555-5-------------| 
--------5555-5-------------| 
 
Verse 
--------------------------------------------------| 
--------------------------------------------------| 
------777-----777----7---7-----777-----777----7---| 
--000-----000-----00---0---000-----000-----00---0-| 
--000-555-000-555-00-5-0-5-000-555-000-555-00-5-0-| 
--000-----000-----00---0---000-----000-----00---0-| 
                           ... 
Verse Guitar 2 
-----------------------------------------------------------------| 
-----------------------------------------------------------------| 
------101010-----101010----10---10-----101010-----101010----10---| 
--000--------000--------00----0----000--------000--------00----0-| 
--000--8-8-8-000--8-8-8-00--8-0--8-000--8-8-8-000--8-8-8-00--8-0-| 
--000--------000--------00----0----000--------000--------00----0-| 
                                   ... 
Verse pt. 2(Guitar 1) 
------------------------------------------------------| 
------------------------------------------------------| 
-333-555-10101010101010-333-555---1212121212121212----| 
------------------------------------------------------| 
-111-333--8-8-8-8-8-8-8-111-333---1010101010101010----| 
------------------------------------------------------| 
 
Verse pt. 2(Guitar 2) 
---------------------------------| 
---------------------------------| 
-33333333------------------------| 
-33333333--55555555--------------| 
-11111111--55555555--------------| 
-----------55555555--------------| 
 
I'm still working on the pre Chorus 
 
Chorus Guitar 1 
-------------------------------------| 
-------------------------------------| 
-77777777-33333333-55555555----------| 
-77777777-33333333-55555555-55555555-| 
-55555555-11111111-33333333-55555555-| 
----------------------------55555555-| 
 
Chorus Guitar2 
-----------5--------------------1-------------------3---------------5------| 
-------6------6---6--------1-------1---1--------3------5---5----------5----| 
-----7---7------7--------3---3-------3--------5---5------5-------7-------7-| 
---7-------7-----------3-------3------------5-------5----------7---7----7--| 
-5-------------------1--------------------3------------------5-------------| 
---------------------------------------------------------------------------| 
 
Chorus pt. 2 Guitar 1 
--------------------------------------| 
--------------------------------------| 
-77777777-33333333-55555555-3333------| 
-77777777-33333333-55555555-3333-5555-| 
-55555555-11111111-33333333-1111-5555-| 
---------------------------------5555-| 
 
Pre Verse 
---------------------------------------| 
-----------10-1010---------------------| 
-5-55-7-77-----------101010-9/10109----| 
-5-55-5-55--5--5-5----5-5-5-5--5-5-5---| 
---------------------------------------| 
---------------------------------------| 
   ..   ..     . .       . . 
 
Verse guitar 1 
------------------------------------| 
------------------------------------| 
------------------------------------| 
-000---000---00-0-00--000-000-------| 
-000---000---00-0-00--000-000-------| 
-000---000---00-0-00--000-000-------| 
                  .. 
 
Verse guitar 2 
-----------------------------------| 
-----------------------------------| 
-77777777777777777777777777777777--| 
-----------------------------------| 
-55555555555555555555555555555555--| 
-----------------------------------| 
 
Verse pt 2(Guitar 1) 
------------------------------------------------------| 
------------------------------------------------------| 
-333-555-10101010101010-333-555---1212121212121212----| 
------------------------------------------------------| 
-111-333--8-8-8-8-8-8-8-111-333---1010101010101010----| 
------------------------------------------------------| 
 
Verse pt. 2(guitar 2) 
---------------------------------| 
---------------------------------| 
-33333333------------------------| 
-33333333--55555555--------------| 
-11111111--55555555--------------| 
-----------55555555--------------| 
 
Chorus 
 
Bridge Guitar 1 
-------------------------------------------------------------------------------| 
-------------------------------------------------------------------------------| 
-----------7777-6666-3333-5555-77777777-3333-5555-7777-6666-33333333-55555555--| 
-3333-5555-7777-6666-3333-5555-77777777-3333-5555-7777-6666-33333333-55555555--| 
-3333-5555-5555-4444-1111-3333-55555555-1111-3333-5555-4444-11111111-33333333--| 
-3333-5555---------------------------------------------------------------------| 
 
Bridge Guitar 2 
----------------------------------------------10----12----13----9-----10----17-15p13h15-----| 
----------------------------------------------13b15-15b17-16b18-12b14-13b15-----------------| 
-10101010-12121212-7777-6666-3333-5555-77777777---------------------------------------------| 
--------------------------------------------------------------------------------------------| 
--8-8-8-8-10101010-5555-4444-1111-3333-55555555---------------------------------------------| 
--------------------------------------------------------------------------------------------| 
 
-------------------| 
-------------------| 
----3333-3---------| 
-0--3333-3-5555-5--| 
-0--1111-1-5555-5--| 
-0---------5555-5--| 
    ....   .... 
 
Chorus 
Outro 
------------------| 
------------------| 
-3333-3-----------| 
-3333-3-5555-5----| 
-1111-1-5555-5----| 
--------5555-5----| 
share this page

See Also: