E-Chords
Armandinho

Sexo Na Caranga(Tabs)

Armandinho

Key: G
Música : Int. G A 

Solo 

6----------------------|-----------------------| 
5----5-5-5-4-5-4-5-7---|-----------------5-4---| 
4----------------------|---5-5-5-4-5-4/2-------| 2x 
3----------------------|-----------------------| 
2----------------------|-----------------------| 
1----------------------|-----------------------| 

6-----------------5----|-----------------------| 
5---5-5-5-4-5-4/2------|---5-5-5-4-5-4-7-5-----| 
4----------------------|-----------------------| 2x 
3----------------------|-----------------------| 
2----------------------|-----------------------| 
1----------------------|-----------------------| 

(G  A) 
Carro parado na esquina 
Nao se aproxima 
É sexo na caranga!! 
Estacionado na pracinha  
Ou na beira da praia 
Sexo na caranga! 

Pré-refrao.  

Sexo na caranga, casa nao tá de banda 
É sexo na caranga 2x 

E eu vou sair com a menina 
Ela nao se zanga 
Vamo pra beira da Praia 
É sexo na caranga 

Pré-Refrão. 

Refrão. 
( C  G ) 
É disconfortável 
Mas é apertadinho 
Tem banco reclinável 
     C (deixa soar) 
A gente dá um jeitinho 
                      G 
6-----7-7-6-6-5-5-4-4-3 
5-----9-9-8-8-7-7-6-6-5 
4---------------------5 
3---------------------4 
2---------------------3 
1---------------------3 

(G   A)   
Eu vo saí com a menina 
Ela nao se zanga 
Vamo pra beira da praia 
É sexo na caranga 

Pré-refrao 

Refrao. 

roll up this ad to continue

share this page

See Also: