E-Chords
Armandinho

Balanço da Rede(solo)(Tabs)

Armandinho

e)--7^5--------------------5-------7---------------------------------------------------------- 
b)--7^5-----------5-8-5--8---8---8---8-5---5--------------5-----------------------3--5^6^5---- 
g)------------4-7------------------------7---7--------4-7---7-4-7-------4-----2^4------------- 
d)-------5--7---------------------------------------7-------------5-5-----5------------------- 
a)--------------------------------------------------------------------------5----------------- 
E)-------------------------------------------------------------------------------------------- 
 
segunda guitarra: 
 
e)----------------------10-----------------------10^12--10-----------------------10--------10--------10--------10--------10--------10~~--- 
b)--------------------------8~-----------------8----------13-12-10--8--12-8--10^12-----10^12-----10^12-----10^12-----10^12-----10^12------ 
g)---------------------------------------------------------------------------------------------------------------------------------------- 
d)---------------------------------------------------------------------------------------------------------------------------------------- 
a)---------------------------------------------------------------------------------------------------------------------------------------- 
E)---------------------------------------------------------------------------------------------------------------------------------------- 

roll up this ad to continue

share this page

See Also: