E-Chords
Arkells

Whistleblower(Tabs)

Arkells

roll up this ad to continue

 

Intro     0:01 

e-----------10--------------------------| 
b-10--10--10--10--10--10----------------| 
g---12--12------12--12------------------| 
d-----------------------12-12-12-12-12--| 
a---------------------------------------| 
E---------------------------------------| 

Solo      0:15 

e-------------------------| 
b----------10-------------| 
g-------------12-10-------| 
d-12-10-12----------12-10-| 
a-------------------------| 
E-------------------------| 

Last Bar of Solo - solo part 2 

e----------------------------------| 
b----------10----------------------| 
g-------------12-10-12-10----------| 
d-12-10-12----------------12-10-12-| 
a----------------------------------| 
E----------------------------------| 

Verse     0:37 

e--------------------------------------------------------| 
b--------------------------------------------------------| 
g--------------------------------------------------------| 
d--------------------------------------------------------| 
a---------------8-----------------8-8-10-8-10-8-10-10----| 
E-8h10-10-10-10---10-8-8-8-8-8-10---------------------10-| 

Bridge    0:47 

e---------------------------------------------------| 
b-10--10--10-10-10-10-10-10-10-10-------------------| 
g---12--12------------------------12-12-12-12-12-12-| 
d---------------------------------------------------| 
a---------------------------------------------------| 
E---------------------------------------------------| 

Chorus    1:03 

e---------------------------------| 
b---------------------------------| 
g-12------10------9-------8-------| 
d-12------10------9-------8-------| 
a-10------8-------7-------6-------| 
E---------------------------------| 

Solo      1:13 

e-------------------------| 
b----------10-------------| 
g-------------12-10-------| 
d-12-10-12----------12-10-| 
a-------------------------| 
E-------------------------| 

Verse     1:34 

e--------------------------------------------------------| 
b--------------------------------------------------------| 
g--------------------------------------------------------| 
d--------------------------------------------------------| 
a---------------8-----------------8-8-10-8-10-8-10-10----| 
E-8h10-10-10-10---10-8-8-8-8-8-10---------------------10-| 

Bridge    1:45 

e---------------------------------------------------| 
b-10--10--10-10-10-10-10-10-10-10-------------------| 
g---12--12------------------------12-12-12-12-12-12-| 
d---------------------------------------------------| 
a---------------------------------------------------| 
E---------------------------------------------------| 

Chorus    2:00 

e---------------------------------| 
b---------------------------------| 
g-12------10------9-------8-------| 
d-12------10------9-------8-------| 
a-10------8-------7-------6-------| 
E---------------------------------| 

Solo x3   2:12 

solo regular 3 bars, solo part 2 last bar 
solo part 2 4 bars straight 
solo regular 3 bars, solo part 2 last bar 

Bridge    2:43 

e----------| 
b-10--10---| 
g---12--12-| 
d----------| 
a----------| 
E----------| 

modified chorus   2:48 

e-----------------------------------------------------------| 
b-----------------10-10-10-10-10-10-10-10-------------------| 
g-7-------12------------------------------12-12-12-12-12-12-| 
d-7-------12------------------------------------------------| 
a-5-------10------------------------------------------------| 
E-----------------------------------------------------------| 

Chorus    2:59 

e---------------------------------| 
b---------------------------------| 
g-12------10------9-------8-------| 
d-12------10------9-------8-------| 
a-10------8-------7-------6-------| 
E---------------------------------| 
share this page

See Also: