Arctic Monkeys

Space Invaders (guitarra)(Tabs)

Arctic Monkeys

Key: D5

roll up this ad to continue

	        IntroduÁ„o: 
e|-----------------------------------------------------------------------------------| 
b|-------------------------------------------------------------------6-8-8h9p8-6-----| 
G|7-x-x-7-x-x-x-10-7-x-x-7/----------------7-x-x-7-x-x-x-10-5h7-7--5-------------5---| 
D|7-x-x-7-x-x-x-10-7-x-x-7/---------3-5-3--7-x-x-7-x-x-x-10--------------------------| 
A|5-x-x-5-x-x-x-8--5-x-x-5/-----3-5--------5-x-x-5-x-x-x-8---------------------------| 
E|--------------------------3-5------------------------------------------------------| 

Riff 1 
e|----------------------------------------------------------------------------------------------| 
b|---------------------------------------------------------------------------------6-8-8h9p8-6--| 
G|7-x-x-7-x-x-x-10-7-x-x-7/----------------7-x-x-7-x-x-7-x-x-7-x-x-7-x-x-7-5h7-7-5-------------5| 
D|7-x-x-7-x-x-x-10-7-x-x-7/---------3-5-3--7-x-x-7-x-x-7-x-x-7-x-x-7-x-x-7----------------------| 
A|5-x-x-5-x-x-x-8--5-x-x-5/-----3-5--------5-x-x-5-x-x-5-x-x-5-x-x-5-x-x-5----------------------| 
E|--------------------------3-5-----------------------------------------------------------------| 

Riff 2 
e|-------------------------------------------------------------------------------------| 
b|--------------------------------------------------------------------------8h9p8-6----| 
G|7-x-x-7-x-x-x-10-7-x-x-7/----------------7-x-x-7-x-x-7-x-x-7-x-x-7-x-x-7-------------| 
D|7-x-x-7-x-x-x-10-7-x-x-7/---------3-5-3--7-x-x-7-x-x-7-x-x-7-x-x-7-x-x-7-------------| 
A|5-x-x-5-x-x-x-8--5-x-x-5/-----3-5--------5-x-x-5-x-x-5-x-x-5-x-x-5-x-x-5-------------| 
E|--------------------------3-5--------------------------------------------------------| 

Riff 3 
e|-------------------------------------------------------------------------------------| 
b|--------------------------------------------------------------------------8h9p8-6/---| 
G|7-x-x-7-x-x-x-10-7-x-x-7/----------------7-x-x-7-x-x-7-x-x-7-x-x-7-x-x-7--7h8h7-5/---| 
D|7-x-x-7-x-x-x-10-7-x-x-7/---------3-5-3--7-x-x-7-x-x-7-x-x-7-x-x-7-x-x-7-------------| 
A|5-x-x-5-x-x-x-8--5-x-x-5/-----3-5--------5-x-x-5-x-x-5-x-x-5-x-x-5-x-x-5-------------| 
E|--------------------------3-5--------------------------------------------------------| 

Riff 4 
e|-------------------------------------------------------------------------------------| 
b|--------------------------------------------------------------------------8h9p8-6----| 
G|7-x-x-7-x-x-x-10-7-x-x-7/----------------7-x-x-7-x-x-7-x-x-7-x-x-7-x-x-7-------------| 
D|7-x-x-7-x-x-x-10-7-x-x-7/---------3-5-3--7-x-x-7-x-x-7-x-x-7-x-x-7-x-x-7-------------| 
A|5-x-x-5-x-x-x-8--5-x-x-5/-----3-5--------5-x-x-5-x-x-5-x-x-5-x-x-5-x-x-5-------------| 
E|--------------------------3-5--------------------------------------------------------| 
Riffs Tirado Por: VELHO (BANDA VM's) 

Riff 1 
Space invaders flying home  
Yeah, they're going to hit the sack  
And they are prob'ly going to die getting high  
Cause they're mixing crazy ... with the crack  

Riff2 
And she's kissing all the boys  
She's to clever to be slack  
But she's bound to go away for a day  
In July, so she won't be coming back  

   | 
   |D5          F5 
 R |Baby, baby, baby  
   |    D5               C5 
 E |The good old days to tax  
   |D5          F5 
 F |Baby, baby, baby  
   |    D5                C5 
 R |Won't you dry your pretty eyes  
   |D5          F5 
 √ |Baby, baby, baby  
   |     D5               C5 
 O |Your good old days to tax  
   |Come on!  
   | 
   
e|--------------------------------------------| 
b|--------------------------------------------| 
G|-7--10--12--13--15---17--15--13--12--10-----| 
D|-7--10--12--13--15---17--15--13--12--10-----| 
A|-5--8---10--11--13---15--13--11--10--8------| 
E|--------------------------------------------| 

EstŠ faltando um verso aqui...Mas ele se toca com o Riff 3 

Riff 4 
And she's kissing all the boys  
She's to clever to be slack  
But she's bound to go away for a day  
In July, so she won't be coming back  

   | 
   |D5          F5 
 R |Baby, baby, baby  
   |    D5               C5 
 E |The good old days to tax  
   |D5          F5 
 F |Baby, baby, baby  
   |    D5                C5 
 R |Won't you dry your pretty eyes  
   |D5          F5 
 √ |Baby, baby, baby  
   |     D5               C5 
 O |Your good old days to tax  
   |Come on!  
   | 
  
   D5 F5  G5  G#5 A#5  C5  A#5 G#5 G5  F5      D5    
e|------------------------------------------------| 
b|------------------------------------------------| 
G|-7--10--12--13--15---17--15--13--12--10------7--| 
D|-7--10--12--13--15---17--15--13--12--10------7--| 
A|-5--8---10--11--13---15--13--11--10--8-------5--| 
E|------------------------------------------------| 
   D5                               F5 
e|---------------------------------------| 
b|---------------------------------------| 
G|---------------------------------------| 
D|---------------------------------------| 
A|--5-5-3-5-5h7-8-10--5-5-3-5------------| 
E|----------------------------3h4p3-1----| 

e|-------------------------------------------------------| 
b|-------------------------------------------------------| 
G|-7-7--7-7--7-7--7-7--7-7--7-7--7-7--7-7-7-7-7-7-7-7----| 
D|-7-7--7-7--7-7--7-7--7-7--7-7--7-7--7-7-7-7-7-7-7-7----| 
A|-5-5--5-5--5-5--5-5--5-5--5-5--5-5--5-5-5-5-5-5-5-5----| 
E|-------------------------------------------------------| 

(D5 F5 D5 C5) 8x D5 

VELHO (BANDA VM's) 

	        

See Also: