E-Chords
Architects

Black Blood(Tabs)

Architects

roll up this ad to continue

Key: C#
            PM PM    NH    NH PM PM 
      E  E  S  S     E     E  S  S  E  E 
C#||--------------------------------------| 
G#||--------------<>12--<>12--------------| 
E ||--------------------------------------| 
B ||--9--9--------------------------9--9--| 
F#||--7--7--------------------------7--7--| 
C#||--------0--0--------------0--0--------| 


  PM PM    NH    NH PM PM  PM PMPM PM PM PM P 
  S  S     E     E  S  S   S  S S  S  S  S  S 
----------------------------------------------| 
--------<>12--<>12----------------------------| 
--------------------------12-12---------------| 
--------------------------------9--9--7--7--9-| 
----------------------------------------------| 
--0--0--------------0--0----------------------| 


          PM PM    NH    NH PM PM 
   E   E  S  S     E     E  S  S   E   E 
------------------------------------------| 
----------------<>12--<>12----------------| 
------------------------------------------| 
--10--10--------------------------10--10--| 
---7---7---------------------------7---7--| 
----------0--0--------------0--0----------| 


  PM PM    NH    NH PM PM PM PM PM PM  PM PM 
  S  S     E     E  S  S  S  S  S  S   S  S 
----------------------------------------------| 
--------<>12--<>12----------------------------| 
--------------------------------------12-12---| 
--------------------------9--9--------------1-| 
--------------------------------7--7----------| 
--0--0--------------0--0----------------------| 


        PM PM    NH    NH PM PM 
  E  E  S  S     E     E  S  S  E  E 
--------------------------------------| 
--------------<>12--<>12--------------| 
--------------------------------------| 
--9--9--------------------------9--9--| 
--7--7--------------------------7--7--| 
--------0--0--------------0--0--------| 


  PM PM    NH    NH PM PM  PM PMPM PM PM PM P 
  S  S     E     E  S  S   S  S S  S  S  S  S 
----------------------------------------------| 
--------<>12--<>12----------------------------| 
--------------------------12-12---------------| 
--------------------------------9--9--7--7--9-| 
----------------------------------------------| 
--0--0--------------0--0----------------------| 


          PM PM    NH    NH PM PM 
   E   E  S  S     E     E  S  S   E   E 
------------------------------------------| 
----------------<>12--<>12----------------| 
------------------------------------------| 
--10--10--------------------------10--10--| 
---7---7---------------------------7---7--| 
----------0--0--------------0--0----------| 


  PM PM    NH    NH PM PM PM PM PM PM PM 
  S  S     E     E  S  S  S  S  S  S  S  S S 
---------------------------------------------| 
--------<>12--<>12---------------------------| 
---------------------------------------------| 
---------------------------------------------| 
--------------------------2--2--2--2--2------| 
--0--0--------------0--0--0--0--0--0--0------| 


  S S S S E   S  S  S  S E  S S S S 
------------------------------------| 
-------------12-12-12-12------------| 
------------------------------------| 
-------------10-10-10-10------------| 
--7-7-7-7-------------------7-7-7-7-| 
----------0--------------0----------| 


                    PM PM PM PM  PM PMPM PM 
  E   S  S  S  S E  S  S  S  S   S  S S  S 
--------------------------------------------| 
-----12-12-12-12----------------------------| 
--------------------------------11-11-------| 
-----10-10-10-10----9--9--------------9--9--| 
--------------------------7--7--------------| 
--0--------------0--------------------------| 


  S S S S E   S  S  S  S E  S S S S 
------------------------------------| 
-------------12-12-12-12------------| 
------------------------------------| 
-------------10-10-10-10------------| 
--7-7-7-7-------------------7-7-7-7-| 
----------0--------------0----------| 


                    PM PM PM PM  PM PM PM PM 
  E   S  S  S  S E  S  S  S  S   S  S  S  S 
--------------------------------------------| 
-----12-12-12-12----------------------------| 
--------------------------------12-12-------| 
-----10-10-10-10----9--9--------------10-10-| 
--------------------------7--7--------------| 
--0--------------0--------------------------| 


  S S S S E   S  S  S  S E  S S S S 
------------------------------------| 
-------------12-12-12-12------------| 
------------------------------------| 
-------------10-10-10-10------------| 
--7-7-7-7-------------------7-7-7-7-| 
----------0--------------0----------| 


                    PM PM PM PM  PM PMPM PM 
  E   S  S  S  S E  S  S  S  S   S  S S  S 
--------------------------------------------| 
-----12-12-12-12----------------------------| 
--------------------------------11-11-------| 
-----10-10-10-10----9--9--------------9--9--| 
--------------------------7--7--------------| 
--0--------------0--------------------------| 


  S S S S E   S  S  S  S E  S S S S 
------------------------------------| 
-------------12-12-12-12------------| 
------------------------------------| 
-------------10-10-10-10------------| 
--7-7-7-7-------------------7-7-7-7-| 
----------0--------------0----------| 


     PM PM PM PM PM PM PM PM PM PM PM PM PM P 
  E  S  S  S  S  S  S  S  S  S  S  S  S  S  S 
----------------------------------------------| 
----------------------------------------------| 
----------------------------------------------| 
-----------------------5--5--------------9--9-| 
-----9--9--5--5--9--9--------9--9--5--5-------| 
--0-------------------------------------------| 


  PM PM           PM PM 
  S  S  S  S S  S S  S  S  S  S  S E  E 
-----------------------------------------| 
-----------------------------------------| 
-----------------------------------------| 
--------5p-0-4p-0-------4h-5p-4h---------| 
---------------------------------5-7-----| 
--0--0------------0--0----------------0--| 


  PM PM           PM PM 
  S  S  S  S S  S S  S  S  S  S  S S  S  S  S 
----------------------------------------------| 
----------------------------------------------| 
----------------------------------------------| 
--------5p-0-4p-0-------4h-5p-4h---5h-9p-5h---| 
---------------------------------5----------7-| 
--0--0------------0--0------------------------| 


  PM PM           PM PM            PM PM 
  S  S  S  S S  S S  S  S  S  S  S S  S  S  S 
----------------------------------------------| 
----------------------------------------------| 
----------------------------------------------| 
--------5p-0-4p-0-------4h-5p-4h---------5h-9-| 
---------------------------------5------------| 
--0--0------------0--0-------------0--0-------| 


       PM PM PM PM PM PM PM PM PM PM PM PM PM 
  S  S S  S  S  S  S  S  S  S  S  S  S  S  S 
---------------------------------------------| 
---------------------------------------------| 
---------------------------------------------| 
--5h---------------------5--5--------------9-| 
-----7-9--9--5--5--9--9--------9--9--5--5----| 
---------------------------------------------| 


  PM PM           PM PM 
  S  S  S  S S  S S  S  S  S  S  S E  E 
-----------------------------------------| 
-----------------------------------------| 
-----------------------------------------| 
--------5p-0-4p-0-------4h-5p-4h---------| 
---------------------------------5-7-----| 
--0--0------------0--0----------------0--| 


  PM PM           PM PM 
  S  S  S  S S  S S  S  S  S  S  S S  S  S  S 
----------------------------------------------| 
----------------------------------------------| 
----------------------------------------------| 
--------5p-0-4p-0-------4h-5p-4h---5h-9p-5h---| 
---------------------------------5----------7-| 
--0--0------------0--0------------------------| 


  PM PM           PM PM            PM PM 
  S  S  S  S S  S S  S  S  S  S  S S  S  S  S 
----------------------------------------------| 
----------------------------------------------| 
----------------------------------------------| 
--------5p-0-4p-0-------4h-5p-4h---------5h-9-| 
---------------------------------5------------| 
--0--0------------0--0-------------0--0-------| 


       PM PM PM PM PM PM PM PM PM PM PM PM PM 
  S  S S  S  S  S  S  S  S  S  S  S  S  S  S 
---------------------------------------------| 
---------------------------------------------| 
---------------------------------------------| 
--5h---------------------5--5----------------| 
-----7-9--9--5--5--9--9--------9--9--5--5----| 
-------------------------------------------7-| 


        PM PM    NH    NH PM PM 
  E  E  S  S     E     E  S  S  E  E 
--------------------------------------| 
--------------<>12--<>12--------------| 
--------------------------------------| 
--9--9--------------------------9--9--| 
--7--7--------------------------7--7--| 
--------0--0--------------0--0--------| 


  PM PM    NH    NH PM PM 
  S  S     E     E  S  S   E   E   E   E 
------------------------------------------| 
--------<>12--<>12--------12--12--12--12--| 
------------------------------------------| 
--------------------------10--10--10--10--| 
------------------------------------------| 
--0--0--------------0--0------------------| 


   E   E   E   E   E   E   E   E 
----------------------------------| 
----------------------------------| 
--11--11--11--11--11--11--11--11--| 
---9---9---9---9---9---9---9---9--| 
---7---7---7---7---7---7---7---7--| 
---0---0---0---0---0---0---0---0--| 


   E   E   E   E   E   E   E   E 
----------------------------------| 
----------------------------------| 
--11--11--11--11--11--11--11--11--| 
---9---9---9---9---9---9---9---9--| 
---7---7---7---7---7---7---7---7--| 
---0---0---0---0---0---0---0---0--| 


  E  E  E  E  E  E  E  E 
--------------------------| 
--7--7--7--7--7--7--7--7--| 
--------------------------| 
--7--7--7--7--7--7--7--7--| 
--7--7--7--7--7--7--7--7--| 
--5--5--5--5--5--5--5--5--| 


  E  E  E  E  E  E  E  E 
--------------------------| 
--7--7--7--7--7--7--7--7--| 
--------------------------| 
--7--7--7--7--7--7--7--7--| 
--7--7--7--7--7--7--7--7--| 
--5--5--5--5--5--5--5--5--| 


   E   E   E   E   E   E   E   E 
----------------------------------| 
----------------------------------| 
--11--11--11--11--11--11--11--11--| 
--10--10--10--10--10--10--10--10--| 
--10--10--10--10--10--10--10--10--| 
---8---8---8---8---8---8---8---8--| 


   E   E   E   E   E   E   E   E 
----------------------------------| 
----------------------------------| 
--11--11--11--11--11--11--11--11--| 
--10--10--10--10--10--10--10--10--| 
--10--10--10--10--10--10--10--10--| 
---8---8---8---8---8---8---8---8--| 


  E  E  E  E  E  E  E  E 
--------------------------| 
--7--7--7--7--7--7--7--7--| 
--7--7--7--7--7--7--7--7--| 
--7--7--7--7--7--7--7--7--| 
--5--5--5--5--5--5--5--5--| 
--------------------------| 


  E  E  E  E  E  E  E  E 
--------------------------| 
--7--7--7--7--7--7--7--7--| 
--7--7--7--7--7--7--7--7--| 
--7--7--7--7--7--7--7--7--| 
--5--5--5--5--5--5--5--5--| 
--------------------------| 


  S S S S E   S  S  S  S E  S S S S 
------------------------------------| 
-------------12-12-12-12------------| 
------------------------------------| 
-------------10-10-10-10------------| 
--7-7-7-7-------------------7-7-7-7-| 
----------0--------------0----------| 


                    PM PM PM PM  PM PMPM PM 
  E   S  S  S  S E  S  S  S  S   S  S S  S 
--------------------------------------------| 
-----12-12-12-12----------------------------| 
--------------------------------11-11-------| 
-----10-10-10-10----9--9--------------9--9--| 
--------------------------7--7--------------| 
--0--------------0--------------------------| 


  S S S S E   S  S  S  S E  S S S S 
------------------------------------| 
-------------12-12-12-12------------| 
------------------------------------| 
-------------10-10-10-10------------| 
--7-7-7-7-------------------7-7-7-7-| 
----------0--------------0----------| 


                    PM PM PM PM  PM PM PM PM 
  E   S  S  S  S E  S  S  S  S   S  S  S  S 
--------------------------------------------| 
-----12-12-12-12----------------------------| 
--------------------------------12-12-------| 
-----10-10-10-10----9--9--------------10-10-| 
--------------------------7--7--------------| 
--0--------------0--------------------------| 


  S S S S E   S  S  S  S E  S S S S 
------------------------------------| 
-------------12-12-12-12------------| 
------------------------------------| 
-------------10-10-10-10------------| 
--7-7-7-7-------------------7-7-7-7-| 
----------0--------------0----------| 


                    PM PM PM PM  PM PMPM PM 
  E   S  S  S  S E  S  S  S  S   S  S S  S 
--------------------------------------------| 
-----12-12-12-12----------------------------| 
--------------------------------11-11-------| 
-----10-10-10-10----9--9--------------9--9--| 
--------------------------7--7--------------| 
--0--------------0--------------------------| 


  S S S S E   S  S  S  S E  S S S S 
------------------------------------| 
-------------12-12-12-12------------| 
------------------------------------| 
-------------10-10-10-10------------| 
--7-7-7-7-------------------7-7-7-7-| 
----------0--------------0----------| 


     PM PM PM PM PM PM PM PM PM PM PM PM PM P 
  E  S  S  S  S  S  S  S  S  S  S  S  S  S  S 
----------------------------------------------| 
----------------------------------------------| 
----------------------------------------------| 
-----------------------5--5--------------9--9-| 
-----9--9--5--5--9--9--------9--9--5--5-------| 
--0-------------------------------------------| 


  PM PM           PM PM 
  S  S  S  S S  S S  S  S  S  S  S E  E 
-----------------------------------------| 
-----------------------------------------| 
-----------------------------------------| 
--------5p-0-4p-0-------4h-5p-4h---------| 
---------------------------------5-7-----| 
--0--0------------0--0----------------0--| 


  PM PM           PM PM 
  S  S  S  S S  S S  S  S  S  S  S S  S  S  S 
----------------------------------------------| 
----------------------------------------------| 
----------------------------------------------| 
--------5p-0-4p-0-------4h-5p-4h---5h-9p-5h---| 
---------------------------------5----------7-| 
--0--0------------0--0------------------------| 


  PM PM           PM PM            PM PM 
  S  S  S  S S  S S  S  S  S  S  S S  S  S  S 
----------------------------------------------| 
----------------------------------------------| 
----------------------------------------------| 
--------5p-0-4p-0-------4h-5p-4h---------5h-9-| 
---------------------------------5------------| 
--0--0------------0--0-------------0--0-------| 


       PM PM PM PM PM PM PM PM PM PM PM PM PM 
  S  S S  S  S  S  S  S  S  S  S  S  S  S  S 
---------------------------------------------| 
---------------------------------------------| 
---------------------------------------------| 
--5h---------------------5--5--------------9-| 
-----7-9--9--5--5--9--9--------9--9--5--5----| 
---------------------------------------------| 


  PM PM           PM PM 
  S  S  S  S S  S S  S  S  S  S  S E  E 
-----------------------------------------| 
-----------------------------------------| 
-----------------------------------------| 
--------5p-0-4p-0-------4h-5p-4h---------| 
---------------------------------5-7-----| 
--0--0------------0--0----------------0--| 


  PM PM           PM PM 
  S  S  S  S S  S S  S  S  S  S  S S  S  S  S 
----------------------------------------------| 
----------------------------------------------| 
----------------------------------------------| 
--------5p-0-4p-0-------4h-5p-4h---5h-9p-5h---| 
---------------------------------5----------7-| 
--0--0------------0--0------------------------| 


  PM PM           PM PM            PM PM 
  S  S  S  S S  S S  S  S  S  S  S S  S  S  S 
----------------------------------------------| 
----------------------------------------------| 
----------------------------------------------| 
--------5p-0-4p-0-------4h-5p-4h---------5h-9-| 
---------------------------------5------------| 
--0--0------------0--0-------------0--0-------| 


       PM PM PM PM PM PM PM PM PM PM PM PM PM 
  S  S S  S  S  S  S  S  S  S  S  S  S  S  S 
---------------------------------------------| 
---------------------------------------------| 
---------------------------------------------| 
--5h---------------------5--5----------------| 
-----7-9--9--5--5--9--9--------9--9--5--5----| 
-------------------------------------------7-| 


  PM PM           PM PM 
  S  S  S  S S  S S  S  S  S  S  S E  E 
-----------------------------------------| 
-----------------------------------------| 
-----------------------------------------| 
--------5p-0-4p-0-------4h-5p-4h---------| 
---------------------------------5-7-----| 
--0--0------------0--0----------------0--| 


  PM PM           PM PM 
  S  S  S  S S  S S  S  S  S  S  S S  S  S  S 
----------------------------------------------| 
----------------------------------------------| 
----------------------------------------------| 
--------5p-0-4p-0-------4h-5p-4h---5h-9p-5h---| 
---------------------------------5----------7-| 
--0--0------------0--0------------------------| 


  PM PM           PM PM            PM PM 
  S  S  S  S S  S S  S  S  S  S  S S  S  S  S 
----------------------------------------------| 
----------------------------------------------| 
----------------------------------------------| 
--------5p-0-4p-0-------4h-5p-4h---------5h-9-| 
---------------------------------5------------| 
--0--0------------0--0-------------0--0-------| 


       PM PM PM PM PM PM PM PM PM PM PM PM PM 
  S  S S  S  S  S  S  S  S  S  S  S  S  S  S 
---------------------------------------------| 
---------------------------------------------| 
---------------------------------------------| 
--5h---------------------5--5--------------9-| 
-----7-9--9--5--5--9--9--------9--9--5--5----| 
---------------------------------------------| 


  PM PM           PM PM 
  S  S  S  S S  S S  S  S  S  S  S E  E 
-----------------------------------------| 
-----------------------------------------| 
-----------------------------------------| 
--------5p-0-4p-0-------4h-5p-4h---------| 
---------------------------------5-7-----| 
--0--0------------0--0----------------0--| 


  PM PM           PM PM 
  S  S  S  S S  S S  S  S  S  S  S S  S  S  S 
----------------------------------------------| 
----------------------------------------------| 
----------------------------------------------| 
--------5p-0-4p-0-------4h-5p-4h---5h-9p-5h---| 
---------------------------------5----------7-| 
--0--0------------0--0------------------------| 


  PM PM           PM PM            PM PM 
  S  S  S  S S  S S  S  S  S  S  S S  S  S  S 
----------------------------------------------| 
----------------------------------------------| 
----------------------------------------------| 
--------5p-0-4p-0-------4h-5p-4h---------5h-9-| 
---------------------------------5------------| 
--0--0------------0--0-------------0--0-------| 


       PM PM PM PM PM PM PM PM PM PM PM PM PM 
  S  S S  S  S  S  S  S  S  S  S  S  S  S  S 
---------------------------------------------| 
---------------------------------------------| 
---------------------------------------------| 
--5h---------------------5--5----------------| 
-----7-9--9--5--5--9--9--------9--9--5--5----| 
-------------------------------------------7-| 


        PM PM    NH    NH PM PM 
  E  E  S  S     E     E  S  S  E  E 
--------------------------------------| 
--------------<>12--<>12--------------| 
--------------------------------------| 
--9--9--------------------------9--9--| 
--7--7--------------------------7--7--| 
--------0--0--------------0--0--------| 


  PM PM    NH    NH PM PM 
  S  S     E     E  S  S   E   E   E   E 
------------------------------------------| 
--------<>12--<>12--------12--12--12--12--| 
------------------------------------------| 
--------------------------10--10--10--10--| 
------------------------------------------| 
--0--0--------------0--0------------------| 


   E   E   E   E   E   E   E   E 
----------------------------------| 
----------------------------------| 
--11--11--11--11--11--11--11--11--| 
---9---9---9---9---9---9---9---9--| 
---7---7---7---7---7---7---7---7--| 
---0---0---0---0---0---0---0---0--| 


   E   E   E   E   E   E   E   E 
----------------------------------| 
----------------------------------| 
--11--11--11--11--11--11--11--11--| 
---9---9---9---9---9---9---9---9--| 
---7---7---7---7---7---7---7---7--| 
---0---0---0---0---0---0---0---0--| 


  E  E  E  E  E  E  E  E 
--------------------------| 
--7--7--7--7--7--7--7--7--| 
--------------------------| 
--7--7--7--7--7--7--7--7--| 
--7--7--7--7--7--7--7--7--| 
--5--5--5--5--5--5--5--5--| 


  E  E  E  E  E  E  E  E 
--------------------------| 
--7--7--7--7--7--7--7--7--| 
--------------------------| 
--7--7--7--7--7--7--7--7--| 
--7--7--7--7--7--7--7--7--| 
--5--5--5--5--5--5--5--5--| 


   E   E   E   E   E   E   E   E 
----------------------------------| 
----------------------------------| 
--11--11--11--11--11--11--11--11--| 
--10--10--10--10--10--10--10--10--| 
--10--10--10--10--10--10--10--10--| 
---8---8---8---8---8---8---8---8--| 


   E   E   E   E   E   E   E   E 
----------------------------------| 
----------------------------------| 
--11--11--11--11--11--11--11--11--| 
--10--10--10--10--10--10--10--10--| 
--10--10--10--10--10--10--10--10--| 
---8---8---8---8---8---8---8---8--| 


  E  E  E  E  E  E  E  E 
--------------------------| 
--7--7--7--7--7--7--7--7--| 
--7--7--7--7--7--7--7--7--| 
--7--7--7--7--7--7--7--7--| 
--5--5--5--5--5--5--5--5--| 
--------------------------| 


  E  E  E  E  E  E  E  E 
--------------------------| 
--7--7--7--7--7--7--7--7--| 
--7--7--7--7--7--7--7--7--| 
--7--7--7--7--7--7--7--7--| 
--5--5--5--5--5--5--5--5--| 
--------------------------| 


   E   E   E   E  Q     Q 
-----------------------------| 
-----------------------------| 
--12--12--12--12-------12----| 
---9---9---9---9--------9----| 
---7---7---7---7--7-----7----| 
------------------0-----0----| 


   E   Q     E   E   E   E   E 
--------------------------------| 
--------------------------------| 
---L--12----12--12--12--12--12--| 
---L---9-----9---9---9---9---9--| 
---L---7-----7---7---7---7---7--| 
---L---0-----0---0---0---0---0--| 


  E  E  E  E  Q    Q 
------------------------| 
--7--7--7--7-------7----| 
------------------------| 
--7--7--7--7-------7----| 
--7--7--7--7--7----7----| 
--------------5----5----| 


  E  Q    E  E  E  E  E 
-------------------------| 
--L--7----7--7--7--7--7--| 
-------------------------| 
--L--7----7--7--7--7--7--| 
--L--7----7--7--7--7--7--| 
--L--5----5--5--5--5--5--| 


   E   E   E   E   Q     Q 
------------------------------| 
------------------------------| 
--12--12--12--12--------12----| 
--10--10--10--10--------10----| 
--10--10--10--10--10----10----| 
-------------------8-----8----| 


   E   Q     E   E   E   E   E 
--------------------------------| 
--------------------------------| 
---L--12----12--12--12--12--12--| 
---L--10----10--10--10--10--10--| 
---L--10----10--10--10--10--10--| 
---L---8-----8---8---8---8---8--| 


  E  E  E  E  Q    Q 
------------------------| 
--7--7--7--7-------7----| 
--7--7--7--7-------7----| 
--7--7--7--7--7----7----| 
--------------5----5----| 
------------------------| 


  E  Q    E  E  E  E  E 
-------------------------| 
--L--7----7--7--7--7--7--| 
--L--7----7--7--7--7--7--| 
--L--7----7--7--7--7--7--| 
--L--5----5--5--5--5--5--| 
-------------------------| 


   E   E   E   E  Q     Q 
-----------------------------| 
-----------------------------| 
--12--12--12--12-------12----| 
---9---9---9---9--------9----| 
---7---7---7---7--7-----7----| 
------------------0-----0----| 


   E   Q     E   E   E   E   E 
--------------------------------| 
--------------------------------| 
---L--12----12--12--12--12--12--| 
---L---9-----9---9---9---9---9--| 
---L---7-----7---7---7---7---7--| 
---L---0-----0---0---0---0---0--| 


   E   E   E   E  Q     Q 
-----------------------------| 
-----------------------------| 
--12--12--12--12-------12----| 
---9---9---9---9--------9----| 
---7---7---7---7--7-----7----| 
------------------0-----0----| 


   E   Q     E   E   E   E   E 
--------------------------------|-----|-----| 
--------------------------------|-----|-----| 
---L--12----12--12--12--12--12--|-----|-----| 
---L---9-----9---9---9---9---9--|-----|-----| 
---L---7-----7---7---7---7---7--|-----|-----| 
---L---0-----0---0---0---0---0--|-----|-----| 


   S  S S S S S  S  S S S S S  S  S S S 
----------------------------------------| 
----------------------------------------| 
--11-11---------11-11---------11-11-----| 
--------9-9-----------9-9-----------9-9-| 
------------7-7-----------7-7-----------| 
----------------------------------------| 


  S S  S  S S S S S  S  S S S S S S S 
--------------------------------------| 
--------------------------------------| 
------11-11---------11-11-------------| 
------------9-9-----------9-9-7-7-9-9-| 
--7-7-----------7-7-------------------| 
--------------------------------------| 


   S  S S S S S  S  S S S S S  S  S S S 
----------------------------------------| 
----------------------------------------| 
--11-11---------11-11---------11-11-----| 
--------9-9-----------9-9-----------9-9-| 
------------7-7-----------7-7-----------| 
----------------------------------------| 


  S S  S  S S S S S  S  S S S S S S S 
--------------------------------------| 
--------------------------------------| 
------11-11---------11-11-------------| 
------------9-9-----------9-9-7-7-9-9-| 
--7-7-----------7-7-------------------| 
--------------------------------------| 


   S  S  S  S S S  S  S  S  S S S  S  S  S  S 
----------------------------------------------| 
----------------------------------------------| 
--11-11-----------11-11-----------11-11-------| 
--------10-10-----------10-10-----------10-10-| 
--------------7-7-------------7-7-------------| 
----------------------------------------------| 


  S S  S  S  S  S S S  S  S  S  S S S  S  S 
--------------------------------------------| 
--------------------------------------------| 
------11-11-----------11-11-----------------| 
------------10-10-----------10-10-9-9-10-10-| 
--7-7-------------7-7-----------------------| 
--------------------------------------------| 


   S  S  S  S S S  S  S  S  S S S  S  S  S  S 
----------------------------------------------| 
----------------------------------------------| 
--11-11-----------11-11-----------11-11-------| 
--------10-10-----------10-10-----------10-10-| 
--------------7-7-------------7-7-------------| 
----------------------------------------------| 


  S S  S  S  S  S S S  S  S  S  S S S  S  S 
--------------------------------------------| 
--------------------------------------------| 
------11-11-----------12-12-----------------| 
------------10-10-----------10-10-9-9-10-10-| 
--7-7-------------7-7-----------------------| 
--------------------------------------------| 


   S  S S S S S  S  S S S S S  S  S S S 
----------------------------------------| 
----------------------------------------| 
--11-11---------11-11---------11-11-----| 
--------9-9-----------9-9-----------9-9-| 
------------7-7-----------7-7-----------| 
----------------------------------------| 


  S S  S  S S S S S  S  S S S S S S S 
--------------------------------------| 
--------------------------------------| 
------11-11---------11-11-------------| 
------------9-9-----------9-9-7-7-9-9-| 
--7-7-----------7-7-------------------| 
--------------------------------------| 


   S  S S S S S  S  S S S S S  S  S S S 
----------------------------------------| 
----------------------------------------| 
--11-11---------11-11---------11-11-----| 
--------9-9-----------9-9-----------9-9-| 
------------7-7-----------7-7-----------| 
----------------------------------------| 


  S S  S  S S S S S  S  S S S S S S S 
--------------------------------------| 
--------------------------------------| 
------11-11---------11-11-------------| 
------------9-9-----------9-9-7-7-9-9-| 
--7-7-----------7-7-------------------| 
--------------------------------------| 


   S  S  S  S S S  S  S  S  S S S  S  S  S  S 
----------------------------------------------| 
----------------------------------------------| 
--11-11-----------11-11-----------11-11-------| 
--------10-10-----------10-10-----------10-10-| 
--------------7-7-------------7-7-------------| 
----------------------------------------------| 


  S S  S  S  S  S S S  S  S  S  S S S  S  S 
--------------------------------------------| 
--------------------------------------------| 
------11-11-----------11-11-----------------| 
------------10-10-----------10-10-9-9-10-10-| 
--7-7-------------7-7-----------------------| 
--------------------------------------------| 


   S  S  S  S S S  S  S  S  S S S  S  S  S  S 
----------------------------------------------| 
----------------------------------------------| 
--11-11-----------11-11-----------11-11-------| 
--------10-10-----------10-10-----------10-10-| 
--------------7-7-------------7-7-------------| 
----------------------------------------------| 


  S S  S  S  S  S S S  S  S  S  S S S  S  S 
--------------------------------------------| 
--------------------------------------------| 
------11-11-----------12-12-----------------| 
------------10-10-----------10-10-9-9-10-10-| 
--7-7-------------7-7-----------------------| 
--------------------------------------------| 


          PM PM       PM PM 
   E   E  S  S  E  E  S  S   E   E 
------------------------------------| 
------------------------------------| 
--12--12--------------------12--12--| 
---9---9---------------------9---9--| 
---7---7--------2--2---------7---7--| 
----------0--0--0--0--0--0----------| 


  PM PM       PM PM    NH   NH   NH   NH   NH 
  S  S  E  E  S  S     S    S    S    S    S 
---------------------------------------------| 
--------------------<>12-<>12-<>12-<>12-<>12-| 
---------------------------------------------| 
---------------------------------------------| 
--------2--2---------------------------------| 
--0--0--0--0--0--0---------------------------| 


          PM PM       PM PM 
   E   E  S  S  E  E  S  S   E   E 
------------------------------------| 
------------------------------------| 
--12--12--------------------12--12--| 
--10--10--------------------10--10--| 
---7---7--------2--2---------7---7--| 
----------0--0--0--0--0--0----------| 


  PM PM PM PM PM PM PM PM PM PM PM PM PM PM P 
  S  S  S  S  S  S  S  S  S  S  S  S  S  S  S 
----------------------------------------------| 
----------------------------------------------| 
----------------------------------------------| 
--------------------------5--5--------------9-| 
--------9--9--5--5--9--9--------9--9--5--5----| 
--0--0----------------------------------------| 


   S  S  S  E.   S  S  S  E.   S  S  S  S 
------------------------------------------| 
------------------------------------------| 
--11-11-11-11---11-11-11-11---11-11-11-11-| 
--10-10-10-10---10-10-10-10---10-10-10-10-| 
--10-10-10-10---10-10-10-10---10-10-10-10-| 
---8--8--8--8----8--8--8--8----8--8--8--8-| 


                   PM PM PM PM PM PM PM PM 
  E   S  S  S  E.  S  S  S  S  S  S  S  S 
-------------------------------------------| 
-------------------------------------------| 
--L--11-11-11-11---------------------------| 
--L--10-10-10-10---------------------------| 
--L--10-10-10-10---------------------------| 
--L---8--8--8--8---0--0--0--0--0--0--0--0--| 


   S  S  S  E.   S  S  S  E.   S  S  S  S 
------------------------------------------| 
------------------------------------------| 
--11-11-11-11---11-11-11-11---11-11-11-11-| 
--10-10-10-10---10-10-10-10---10-10-10-10-| 
--10-10-10-10---10-10-10-10---10-10-10-10-| 
---8--8--8--8----8--8--8--8----8--8--8--8-| 


  E   S  S  S  E.  S S S S  S  S S S 
-------------------------------------| 
-------------------------------------| 
--L--11-11-11-11-----------11-11-----| 
--L--10-10-10-10---9-9-----------9-9-| 
--L--10-10-10-10-------7-7-----------| 
--L---8--8--8--8---------------------| 


          PM PM       PM PM 
   E   E  S  S  E  E  S  S   E   E 
------------------------------------| 
------------------------------------| 
--12--12--------------------12--12--| 
---9---9---------------------9---9--| 
---7---7--------2--2---------7---7--| 
----------0--0--0--0--0--0----------| 


  PM PM       PM PM    NH   NH   NH   NH   NH 
  S  S  E  E  S  S     S    S    S    S    S 
---------------------------------------------| 
--------------------<>12-<>12-<>12-<>12-<>12-| 
---------------------------------------------| 
---------------------------------------------| 
--------2--2---------------------------------| 
--0--0--0--0--0--0---------------------------| 


          PM PM       PM PM 
   E   E  S  S  E  E  S  S   E   E 
------------------------------------| 
------------------------------------| 
--12--12--------------------12--12--| 
--10--10--------------------10--10--| 
---7---7--------2--2---------7---7--| 
----------0--0--0--0--0--0----------| 


  PM PM PM PM PM PM PM PM PM PM PM PM PM PM P 
  S  S  S  S  S  S  S  S  S  S  S  S  S  S  S 
----------------------------------------------| 
----------------------------------------------| 
----------------------------------------------| 
--------------------------5--5--------------9-| 
--------9--9--5--5--9--9--------9--9--5--5----| 
--0--0----------------------------------------| 


   S  S  S  E.   S  S  S  E.   S  S  S  S 
------------------------------------------| 
------------------------------------------| 
--11-11-11-11---11-11-11-11---11-11-11-11-| 
--10-10-10-10---10-10-10-10---10-10-10-10-| 
--10-10-10-10---10-10-10-10---10-10-10-10-| 
---8--8--8--8----8--8--8--8----8--8--8--8-| 


                   PM PM PM PM PM PM PM PM 
  E   S  S  S  E.  S  S  S  S  S  S  S  S 
-------------------------------------------| 
-------------------------------------------| 
--L--11-11-11-11---------------------------| 
--L--10-10-10-10---------------------------| 
--L--10-10-10-10---------------------------| 
--L---8--8--8--8---0--0--0--0--0--0--0--0--| 


   S  S  S  E.   S  S  S  E.   S  S  S  S 
------------------------------------------| 
------------------------------------------| 
--11-11-11-11---11-11-11-11---11-11-11-11-| 
--10-10-10-10---10-10-10-10---10-10-10-10-| 
--10-10-10-10---10-10-10-10---10-10-10-10-| 
---8--8--8--8----8--8--8--8----8--8--8--8-| 


  E   S  S  S  E.  S S S S  S  S S S 
-------------------------------------| 
-------------------------------------| 
--L--11-11-11-11-----------11-11-----| 
--L--10-10-10-10---9-9-----------9-9-| 
--L--10-10-10-10-------7-7-----------| 
--L---8--8--8--8---------------------| 


  PM PM          PM PM 
  E  E           E  E  H. 
--------|-----|---------------------| 
--------|-----|---------------------| 
--------|-----|---------------------| 
--------|-----|---------------------| 
--0--0--|-----|--0--0---------------| 
--0--0--|-----|--0--0---------------| 


     PM PM       PM PM 
  E  E  E  E  E  E  E  E 
--------------------------| 
--------------------------| 
--------------------------| 
--------------------------| 
-----0--0--------0--0-----| 
-----0--0--------0--0-----| 


        PM PM PM PM PM PM PM 
  E  E  E  E  E  E  S  S  E 
-----------------------------| 
-----------------------------| 
-----------------------------| 
-----------------------------| 
--------0--0--0--0--0--0--0--| 
--------0--0--0--0--0--0--0--| 


  PM PM PM PM PM 
  S  S  E  E  E  E.  E.  E 
----------------------------| 
----------------------------| 
----------------------------| 
-----------------5---5---4--| 
--3--3--3--0--2--3---3---0--| 
--3--3--3--0--2--3---3------| 


  PM PM 
  E  E  H. 
---------------------| 
---------------------| 
---------------------| 
---------------------| 
--0--0---------------| 
--0--0---------------| 


     PM PM       PM PM 
  E  E  E  E  E  E  E  E 
--------------------------| 
--------------------------| 
--------------------------| 
--------------------------| 
-----0--0--------0--0-----| 
-----0--0--------0--0-----| 


        PM PM PM PM PM PM PM 
  E  E  E  E  E  E  S  S  E 
-----------------------------| 
-----------------------------| 
-----------------------------| 
-----------------------------| 
--------0--0--0--0--0--0--0--| 
--------0--0--0--0--0--0--0--| 


  PM PM PM PM PM 
  S  S  E  E  E  E.  E.  E 
----------------------------| 
----------------------------| 
----------------------------| 
-----------------5---5---4--| 
--3--3--3--0--2--3---3---0--| 
--3--3--3--0--2--3---3------| 


  PM PM 
  E  E  H. 
---------------------| 
---------------------| 
---------------------| 
---------------------| 
--0--0---------------| 
--0--0---------------| 


     PM PM       PM PM 
  E  E  E  E  E  E  E  E 
--------------------------| 
--------------------------| 
--------------------------| 
--------------------------| 
-----0--0--------0--0-----| 
-----0--0--------0--0-----| 


        PM PM PM PM PM PM PM 
  E  E  E  E  E  E  S  S  E 
-----------------------------| 
-----------------------------| 
-----------------------------| 
-----------------------------| 
--------0--0--0--0--0--0--0--| 
--------0--0--0--0--0--0--0--| 


  PM PM PM PM PM 
  S  S  E  E  E  E.  E.  E 
----------------------------| 
----------------------------| 
----------------------------| 
-----------------5---5---4--| 
--3--3--3--0--2--3---3---0--| 
--3--3--3--0--2--3---3------| 


  PM PM 
  E  E  H. 
---------------------| 
---------------------| 
---------------------| 
---------------------| 
--0--0---------------| 
--0--0---------------| 


     PM PM       PM PM 
  E  E  E  E  E  E  E  E 
--------------------------| 
--------------------------| 
--------------------------| 
--------------------------| 
-----0--0--------0--0-----| 
-----0--0--------0--0-----| 


        PM PM PM PM PM PM PM 
  E  E  E  E  E  E  S  S  E 
-----------------------------| 
-----------------------------| 
-----------------------------| 
-----------------------------| 
--------0--0--0--0--0--0--0--| 
--------0--0--0--0--0--0--0--| 


  PM PM PM PM PM 
  S  S  E  E  E  E.  E.  E 
----------------------------| 
----------------------------| 
----------------------------| 
-----------------5---5---4--| 
--3--3--3--0--2--3---3---0--| 
--3--3--3--0--2--3---3------| 


  E  E  E  E  E  E  E  E 
--------------------------| 
--------------------------| 
--9--9--9--9--9--9--9--9--| 
--9--9--9--9--9--9--9--9--| 
--------------------------| 
--------------------------| 


  E  E  E  E  E  E  E  E 
--------------------------| 
--------------------------| 
--9--9--9--9--9--9--9--9--| 
--9--9--9--9--9--9--9--9--| 
--------------------------| 
--------------------------| 


  E  E  E  E  E  E  E  E 
--------------------------| 
--------------------------| 
--9--9--9--9--9--9--9--9--| 
--7--7--7--7--7--7--7--7--| 
--------------------------| 
--------------------------| 


  E  E  E  E  E  E  E  E 
--------------------------| 
--------------------------| 
--9--9--9--9--9--9--9--9--| 
--7--7--7--7--7--7--7--7--| 
--------------------------| 
--------------------------| 


  E  E  E  E  E  E  E  E 
--------------------------| 
--------------------------| 
--9--9--9--9--9--9--9--9--| 
--9--9--9--9--9--9--9--9--| 
--------------------------| 
--------------------------| 


  E  E  E  E  E  E  E  E 
--------------------------| 
--------------------------| 
--9--9--9--9--9--9--9--9--| 
--9--9--9--9--9--9--9--9--| 
--------------------------| 
--------------------------| 


   E   E   E   E   E   E   E   E 
----------------------------------| 
----------------------------------| 
--11--11--11--11--11--11--11--11--| 
---9---9---9---9---9---9---9---9--| 
----------------------------------| 
----------------------------------| 


   E   E   E   E   E   E   E   E 
----------------------------------| 
----------------------------------| 
--12--12--12--12--12--12--12--12--| 
---9---9---9---9---9---9---9---9--| 
----------------------------------| 
----------------------------------| 


  E  E  E  E  E  E  E  E 
--------------------------| 
--------------------------| 
--9--9--9--9--9--9--9--9--| 
--9--9--9--9--9--9--9--9--| 
--------------------------| 
--------------------------| 


  E  E  E  E  E  E  E  E 
--------------------------| 
--------------------------| 
--9--9--9--9--9--9--9--9--| 
--9--9--9--9--9--9--9--9--| 
--------------------------| 
--------------------------| 


  E  E  E  E  E  E  E  E 
--------------------------| 
--------------------------| 
--9--9--9--9--9--9--9--9--| 
--7--7--7--7--7--7--7--7--| 
--------------------------| 
--------------------------| 


  E  E  E  E  E  E  E  E 
--------------------------| 
--------------------------| 
--9--9--9--9--9--9--9--9--| 
--7--7--7--7--7--7--7--7--| 
--------------------------| 
--------------------------| 


  E  E  E  E  E  E  E  E 
--------------------------| 
--------------------------| 
--9--9--9--9--9--9--9--9--| 
--9--9--9--9--9--9--9--9--| 
--------------------------| 
--------------------------| 


  E  E  E  E  E  E  E  E 
--------------------------| 
--------------------------| 
--9--9--9--9--9--9--9--9--| 
--9--9--9--9--9--9--9--9--| 
--------------------------| 
--------------------------| 


   E   E   E   E   E   E   E   E 
----------------------------------| 
----------------------------------| 
--11--11--11--11--11--11--11--11--| 
---9---9---9---9---9---9---9---9--| 
----------------------------------| 
----------------------------------| 


                                     PM PM 
   E   E   E   E   E   E   E   E     E  E 
----------------------------------|--------|| 
----------------------------------|--------|| 
--12--12--12--12--12--12--12--12--|--------|| 
---9---9---9---9---9---9---9---9--|--------|| 
----------------------------------|--0--0--|| 
----------------------------------|--0--0--|| 




Duration Legend 
--------------- 
W - whole 
H - half 
Q - quarter 
E - 8th 
S - 16th 
T - 32nd 
X - 64th 
. - note dotted 
|-n-|  - n-tuplets 


Tablature Legend 
---------------- 
L - tied note 
x - dead note 
g - grace note 
(n) - ghost note 
> - accentuded note 
NH - natural harmonic 
AH - artificial harmonic 
TH - tapped harmonic 
SH - semi harmonic 
PH - pitch harmonic 
h - hammer on 
p - pull off 
b - bend 
br - bendRelease 
pb - preBend 
pbr - preBendRelease 
brb - bendReleaseBend 
\n/ - tremolo bar dip 
\n - tremolo bar dive 
-/n - tremolo bar Release up 
/n\ - tremolo bar inverted dip 
/n - tremolo bar return 
-\n - tremolo bar Release down 
S - shift slide 
s - legato slide 
/ -  slide into from below or out of upwards 
\ -  slide into from above or out of downwards 
~ - vibrato 
W - wide vibrato 
tr - trill 
TP - tremolo picking 
T - tapping 
S - slap 
P - pop 
< - fade in 
^ - brush up 
v - brush down 
share this page

See Also: