E-Chords
Anna Calvi

Rider To The Sea(Tabs)

Anna Calvi

roll up this ad to continue


 d#|----------------------------------| 
 A#|----------------------------------|  
 F#|--------4-6b7---------4-6b7r6-4-~-|  
 C#|------5-------------5-----------5-|  
 G#|----7-------------7---------------|  
 D#|0-------------0-------------------|  

   DU 
 d#|3----11-| 
 A#|3----10-|  
 F#|4----11-|  
 C#|5-------|  
 G#|5-------|  
 D#|3-------|  


 d#|----------------------------------| 
 A#|----------------------------------|  
 F#|--------4-6b7---------4-6b7r6-4-~-|  
 C#|------5-------------5-----------5-|  
 G#|----7-------------7---------------|  
 D#|0-------------0-------------------|  


 d#|---------------7-------------| 
 A#|--2-2-3-4b5----8-7-7h8p7-----|  
 F#|--2-2-2-3b4----9---------9---|  
 C#|--2-2----------9-------------|  
 G#|0----------------------------|  
 D#|-------------0---------------|  


 d#|---------------7-------------| 
 A#|--2-2-3-4b5----8-7-10-8p7----|  
 F#|--2-2-2-3b4----9----------9--|  
 C#|--2-2----------9-------------|  
 G#|0----------------------------|  
 D#|-------------0---------------|  


 d#|-----------------------------| 
 A#|7-8-8h10p8-7-5-8-10-11b12----|  
 F#|7------------5---------------|  
 C#|7------------5---------------|  
 G#|5------------3---------------|  
 D#|---------------------------0-|  


 d#|11-12----12-------------15----------------------------| 
 A#|------15----15-12----12----15-12----------------------|  
 F#|------------------14-------------14-12-11-12-11-9-----|  
 C#|------------------------------------------------------|  
 G#|------------------------------------------------------|  
 D#|------------------------------------------------------|  


 d#|-----------------------------| 
 A#|-----------------------------|  
 F#|-----------------------------|  
 C#|12-9-------------------------|  
 G#|-----12-10-9b10r9------------|  
 D#|-----------------------------|  


 d#|----------------------------------| 
 A#|----------------------------------|  
 F#|--------4-6b7---------4-6b7r6-4-~-|  
 C#|------5-------------5-----------5-|  
 G#|----7-------------7---------------|  
 D#|0-------------0-------------------|  


 d#|------7/15----11-------------| 
 A#|-----8------8-10-------------|  
 F#|----7------9--11-------------|  
 C#|---9-------9-----------------|  
 G#|/10--------------------------|  
 D#|-----------------------------|  


 d#|---------------7-------------| 
 A#|--2-2-3-4b5----8-7-7h8p7-----|  
 F#|--2-2-2-3b4----9---------9---|  
 C#|--2-2----------9-------------|  
 G#|0----------------------------|  
 D#|-------------0---------------|  


 d#|---------------7-------------| 
 A#|--2-2-3-4b5----8-7-10-8p7----|  
 F#|--2-2-2-3b4----9----------9--|  
 C#|--2-2----------9-------------|  
 G#|0----------------------------|  
 D#|-------------0---------------|  


 d#|-----------------------------| 
 A#|7-8-8h10p8-7-5-8-10-11b12----|  
 F#|7------------5---------------|  
 C#|7------------5---------------|  
 G#|5------------3---------------|  
 D#|---------------------------0-|  


 d#|11-12----12-------------15----------------------------| 
 A#|------15----15-12----12----15-12----------------------|  
 F#|------------------14-------------14-12-11-12-11-9-----|  
 C#|------------------------------------------------------|  
 G#|------------------------------------------------------|  
 D#|------------------------------------------------------|  


 d#|-----------------------------| 
 A#|-----------------------------|  
 F#|-----------------------------|  
 C#|12-9-------------------------|  
 G#|-----12-10-9b10r9-7-------~--|  
 D#|----------------------8---7--|  


     
 d#|5----3----8----7----5----3----8----7----| 
 A#|5----3----8----7----5----3----8----7----|  
 F#|5----4----9----7----5----4----9----7----|  
 C#|7----5----10---9----7----5----10---9----|  
 G#|7----5----10---9----7----5----10---9----|  
 D#|5----3----8----7----5----3----8----7----|  


 
 d#|7----10---13---12---14-15-16-17-18-19-------------| 
 A#|8----10---13--------------------------------------|  
 F#|9----11---14---9----11-12-13-14-15-16-------------|  
 C#|9----12---15---11---13-14-15-16-17-18-------------|  
 G#|7----12---15---10---12-13-14-15-16-17-------------|  
 D#|7----10---13--------------------------------------|  


 d#|7-----10-------13---------16---------19---------22----| 
 A#|-6-6/9--9--9/12--12--12/15--15--15/18--18--18/21------|  
 F#|--7------10--------13---------16---------19-----------|  
 C#|------------------------------------------------------|  
 G#|------------------------------------------------------|  
 D#|------------------------------------------------------|  


 d#|-19-18-| 
 A#|-------|  
 F#|-------|  
 C#|-------|  
 G#|-------|  
 D#|-------|  
share this page

See Also: