A.n.i.m.a.l.

Camouflaje(Tabs)

A.n.i.m.a.l.

roll up this ad to continue

	        AFINACION 

4-A 
5-E 
6-A 

INTRO 

A-0--0-3-4-0-3-4-3-3-0-0--0 
E-0--0-3-4-0-3-4-3-3-0-0--0 
A-0--0-3-4-0-3-4-3-3-0-0--0 


RIFF 1 

A-0-0--------0-0-0--0--0-0----0-0-0--0--0-0----0-0-0--0--0-0 
E-0-0--------0-0-0--0--0-0----0-0-0--0--0-0----0-0-0--0--0-0 
A-0-0--------0-0-0--0--0-0----0-0-0--0--0-0----0-0-0--0--0-0 
  pm........................................................ 

FILL 

C-----6-----6 
A-0-0---0-0-- 
E-0-0---0-0-- 
A-0-0---0-0-- 
  pm.   pm. 

RIFF 2 

C-------6 
A-4-3-4-- 
E-4-3-4-- 
A-4-3-4-- 

RIFF 3 

A-0-0--0-3-3--3-4-4--4-0-0--0 
E-0-0--0-3-3--3-4-4--4-0-0--0 
A-0-0--0-3-3--3-4-4--4-0-0--0 

FILL 2 

A-4-3-4-3-4-3-4-3 
E-4-3-4-3-4-3-4-3 
A-4-3-4-3-4-3-4-3 
  pm............. 


RIFF 4 

A-0----0----0----0 
E-0----0----0----0 
A-0----0----0----0 


FINAL 

A-0--0-3-4-0-3-4-3-3-0-0--0-0 
E-0--0-3-4-0-3-4-3-3-0-0--0-0 
A-0--0-3-4-0-3-4-3-3-0-0--0-0 

INTRO(16 veces) 

RIFF 1(1 vez) 
LA BALANZA SE ROMPE 
EN UN MUNDO INCOHERENTE                    
LA JUSTICIA SE CAE 

FILL(1 vez)  
MUERTA.... 

RIFF 1(1 vez) 
LA PACIENCIA SE ACABA  
DESTRUYENDO LA CALMA 
LA RESPUESTA SE ESCONDE 

FILL(1 vez)  
LEJOS 

RIFF 1(1 vez) 
POCO TIEMPO LE QUEDA 
A ESTE POBRE PLANETA 
QUE SOPORTA Y RESISTE 

FILL(1 vez) 
TANTO 

RIFF 1(1 vez) 
EL PRESENTE IMPROVISA 
CON MUY POCAS IDEAS 
VA SACANDO BASURA 

FILL (1 vez) 
FUERA 

RIFF 2(8 veces) 

RIFF 2(8 veces) 
LO QUE SE VE 
NO ES EN VERDAD 
LA REALIDAD 
NUESTROS OJOS NOS ENGAÑAN 

RIFF 3(4 veces) 
PURA AMBICION Y MENTIRAS NOS DAN 
PARA QUE NO PODAMOS PENSAR 
PURA AMBICION Y MENTIRAS NOS DAN 
PARA QUE NO  

FILL 2(1 vez) 
MOLESTEMOS 

INTRO(8 veces) 
QUIEN PUEDA VER 
SABRA DEMOSTRAR 
COMO HACERLO 
QUIEN PUEDA VER 
SABRA DEMOSTRAR 
COMO HACERLO.... 

RIFF 4(1 vez) 

RIFF 1(1 vez) 
LA PACIENCIA SE ACABA  
DESTRUYENDO LA CALMA 
LA RESPUESTA SE ESCONDE 

FILL(1 vez) 
LEJOS... 

RIFF 1(1 vez) 
POCO TIEMPO LE QUEDA 
A ESTE POBRE PLANETA 
QUE SOPORTA Y RESISTE 

FILL(1 vez) 
TANTO... 

RIFF 2(8 veces) 

RIFF 2(8 veces) 
LO QUE SE VE 
NO ES EN VERDAD 
LA REALIDAD 
NUESTROS OJOS NOS ENGAÑAN 

RIFF 3(4 veces) 
PURA AMBICION Y MENTIRAS NOS DAN 
PARA QUE NO PODAMOS PENSAR 
PURA AMBICION Y MENTIRAS NOS DAN 
PARA QUE NO  

FILL 2(1 vez) 
MOLESTEMOS 

INTRO(15 veces) 
QUIEN PUEDA VER 
SABRA DEMOSTRAR 
COMO HACERLO 
QUIEN PUEDA VER 
SABRA DEMOSTRAR 
COMO HACERLO 
QUIEN PUEDA VER 
SABRA DEMOSTRAR 
COMO HACERLO 
QUIEN PUEDA VER 
SABRA DEMOSTRAR 

FINAL(1 vez) 
COMO HACERLO. 


	        

Written by Marcelo Corvalan / A. Gimenez

See Also: