E-Chords
Angus And Julia Stone

Walk It Off(Tabs)

Angus And Julia Stone

roll up this ad to continue



INTRO 
e|----------------------------------|----------------------------------| 
B|--------2-------2-------2-------2-|--------2-------2-------2-------2-| 
G|----2-------2-------2-------2-----|----2-------2-------2-------2-----| 
D|----------------------------------|----------------------------------| 
A|--0---0---0---0---0---0---0---0---|----------------------------------| 
E|----------------------------------|--2---2---2---2---2---2---2---2---| 

e|----------------------------------|----------------------------------|| 
B|--------2-------2-------2-------2-|--------2-------2-------2-------2-|| 
G|----2-------2-------2-------2-----|----2-------2-------2-------2-----|| 
D|----------------------------------|--0---0---0---0---0---0---0---0---|| X 2 
A|----------------------------------|----------------------------------|| 
E|--0---0---0---0---0---0---0---0---|----------------------------------|| 

VERSE 1 & 2 
e|----------------------------------|----------------------------------| 
B|--------2-------2-------2-------2-|--------2-------2-------2-------2-| 
G|----2-------2-------2-------2-----|----2-------2-------2-------2-----| 
D|----------------------------------|----------------------------------| 
A|--0---0---0---0---0---0---0---0---|----------------------------------| 
E|----------------------------------|--2---2---2---2---2---2---2---2---| 

e|----------------------------------|----------------------------------|| 
B|--------2-------2-------2-------2-|--------2-------2-------2-------2-|| 
G|----2-------2-------2-------2-----|----2-------2-------2-------2-----|| 
D|----------------------------------|--0---0---0---0---0---0---0---0---|| X 2 
A|----------------------------------|----------------------------------|| 
E|--0---0---0---0---0---0---0---0---|----------------------------------|| 

PRE-CHORUS  
e|----------------------------------|----------------------------------| 
B|--------2-------2-------2-------2-|--------2-------2-------2-------2-| 
G|----2-------2-------2-------2-----|----2-------2-------2-------2-----| 
D|----------------------------------|----------------------------------| 
A|----------------------------------|----------------------------------| 
E|--2---2---2---2---2---2---2---2---|--2---2---2---2---2---2---2---2---| 

e|----------------------------------|----------------------------------|| 
B|--------2-------2-------2-------2-|--------2-------2-------2-------2-|| 
G|----2-------2-------2-------2-----|----2-------2-------2-------2-----|| 
D|----------------------------------|----------------------------------|| X 2 
A|--0---0---0---0---0---0---0---0---|--0---0---0---0---0---0---0---0---|| 
E|----------------------------------|----------------------------------|| 

CHORUS 
e|----------------------------------|----------------------------------|| 
B|--------2-------2-------2-------2-|--------2-------2-------2-------2-|| 
G|----2-------2-------2-------2-----|----2-------2-------2-------2-----|| 
D|----------------------------------|----------------------------------|| X 2 
A|----------------------------------|--0---0---0---0---0---0---0---0---|| 
E|--2---2---2---2---2---2---2---2---|----------------------------------|| 

CHORUS FADE-OUT 1 
e|----------------------------------|----------------------------------| 
B|--------2-------2-------2-------2-|--------2-------2-------2-------2-| 
G|----2-------2-------2-------2-----|----2-------2-------2-------2-----| 
D|--0---0---0---0---0---0---0---0---|----------------------------------| 
A|----------------------------------|----------------------------------| 
E|----------------------------------|--2---2---2---2---2---2---2---2---| 

e|----------------------------------|------------------------------------|| 
B|--------2-------2-------2-------2-|--------2-------2-------2-------2--2|| 
G|----2-------2-------2-------2-----|----2-------2-------2-------2------2|| 
D|----------------------------------|--0---0---0---0---0---0---0---0----0|| 
A|----------------------------------|------------------------------------|| 
E|--0---0---0---0---0---0---0---0---|------------------------------------|| 

CHORUS FADE-OUT 2 
e|----------------------------------|----------------------------------| 
B|--2-------------------------------|--2-------------------------------| 
G|--2-------------------------------|--2-------------------------------| 
D|--0-------------------------------|----------------------------------| 
A|----------------------------------|----------------------------------| 
E|----------------------------------|--2-------------------------------| 

e|----------------------------------|----------------------------------|| 
B|--2-------------------------------|--2-------------------------------|| 
G|--2-------------------------------|--2-------------------------------|| 
D|----------------------------------|--0-------------------------------|| 
A|----------------------------------|----------------------------------|| 
E|--0-------------------------------|----------------------------------|| 

VERSE 3 
e|----------------------------------|----------------------------------| 
B|--------2-------2-------2-------2-|--------2-------2-------2-------2-| 
G|----2-------2-------2-------2-----|----2-------2-------2-------2-----| 
D|----------------------------------|----------------------------------| 
A|--0---0---0---0---0---0---0---0---|----------------------------------| 
E|----------------------------------|--2---2---2---2---2---2---2---2---| 

e|----------------------------------|----------------------------------|| 
B|--------2-------2-------2-------2-|--------2-------2-------2-------2-|| 
G|----2-------2-------2-------2-----|----2-------2-------2-------2-----|| 
D|----------------------------------|--0---0---0---0---0---0---0---0---|| X 2 
A|----------------------------------|----------------------------------|| 
E|--0---0---0---0---0---0---0---0---|----------------------------------|| 

e|----------------------------------|----------------------------------|| 
B|--------2-------2-------2-------2-|--2-------------------------------|| 
G|----2-------2-------2-------2-----|--2-------------------------------|| 
D|----------------------------------|----------------------------------|| 
A|--0---0---0---0---0---0---0---0---|--0-------------------------------|| 
E|----------------------------------|----------------------------------|| 
 
share this page

See Also: