E-Chords
Angus And Julia Stone

Take You Away(Tabs)

Angus And Julia Stone

roll up this ad to continue

Key: C
Intro: 

   C               Em             Am              Am 
E|---------------|---------------|---------------|---------------| 
B|-1-------1-----|-0-------0-----|-1-------1-----|-1-------1-----| 
G|-----0-------0-|-----0-------0-|-----2-------2-|-----2-------2-| 
D|---2-------2---|---2-------2---|---2-------2---|---2-------2---| 
A|-3-----3-------|---------------|-0-----0-------|-0-----0-------| 
E|---------------|-0-----0-------|---------------|---------------| 

Verso: 

 C               Em             Am              Am 
E|---------------|---------------|---------------|---------------| 
B|-1-------1-----|-0-------0-----|-1-------1-----|-1-------1-----| 
G|-----0-------0-|-----0-------0-|-----2-------2-|-----2-------2-| 
D|---2-------2---|---2-------2---|---2-------2---|---2-------2---| 
A|-3-----3-------|---------------|-0-----0-------|-0-----0-------| 
E|---------------|-0-----0-------|---------------|---------------| 

When your feeling down 
And your sky is grey 
And the people that you love 
Well they have nothing lovely to say 

When your days are long 
And lonelier than before 
When your bed is cold 
And the sheep are at your door 

Refrão: 

          F               G               C               C 
E|---------------|---------------|---------------|---------------| 
B|-1-------1-----|-0-------0-----|-1-------1-----|-1-------1-----| 
G|-----2-------2-|-----0-------0-|-----0-------0-|-----0-------0-| 
D|---3-------3---|---0-------0---|---2-------2---|---2-------2---| 
A|---------------|---------------|-3-----3-------|-3-----3-------| 
E|-1-----1-------|-3-----3-------|---------------|---------------| 

          F               G 
E|---------------|---------------|---------------|---------------| 
B|-1-------1-----|-0-------0-----|--1----0----1--|---------------| 
G|-----2-------2-|-----0-------0-|--0----0----2--|---------------| 
D|---3-------3---|---0-------0---|---------------|---------------| 
A|---------------|---------------|--3----2----0--|---------------| 
E|-1-----1-------|-3-----3-------|---------------|---------------| 

          F               G               C 
E|---------------|---------------|---------------|---------------| 
B|-1-------1-----|-0-------0-----|-1-------------|---------------| 
G|-----2-------2-|-----0-------0-|-0-------------|---------------| 
D|---3-------3---|---0-------0---|---------------|---------------| 
A|---------------|---------------|-3-------------|---------------| 
E|-1-----1-------|-3-----3-------|---------------|---------------| 

I'll take you away 
I'll take you away 
I'll take you 
I'll take you away 
I'll take you away 

2ª Verso: 

 C               Em             Am              Am 
E|---------------|---------------|---------------|---------------| 
B|-1-------1-----|-0-------0-----|-1-------1-----|-1-------1-----| 
G|-----0-------0-|-----0-------0-|-----2-------2-|-----2-------2-| 
D|---2-------2---|---2-------2---|---2-------2---|---2-------2---| 
A|-3-----3-------|---------------|-0-----0-------|-0-----0-------| 
E|---------------|-0-----0-------|---------------|---------------| 

When you're tired of working like a slave 
And the smell of the coffee bean 
Well it just won't go away 
And you friends, well they've got nothing good to say 
You just call out my name 

and I'll take you away 
I'll take you away 
I'll take you 
I'll take you away 
I'll take you away 

I'll take you away 
I'll take you away 
I'll take you 
I will take you away 
share this page

See Also: