Angels and Airwaves

Kiss With A Spell(Tabs)

Angels and Airwaves

roll up this ad to continue

	        

Intro/Verse Riff (Almost Clean, Palm muted) 
(Play repeatedly from 0:16 to 1:06) 

E|------------------------| 
B|------------------------| 
G|-5------5---------------| 
D|-----5------5-----------| 
A|---3------3-----1-1-3-3-| 
E|------------------------| 

Pre-Chorus (Overdrive with high sustain) 
(Play twice from 1:06 to 1:27) 

E|--------------------------------------------------------------------| 
B|--------------------------------------------------------------------| 
G|--------------------------------------------------------------------| 
D|--13p12h13p12h13p12h13p12h13p12h13p12h13p12h13p12h13/17------\8/10--| 
A|--------------------------------------------------------------------| 
E|--------------------------------------------------------------------| 


Chorus (Almost Clean) 
(Play twice from 1:27 to 1:47) 
Let the first two chords ring for one measure, the third chord ring for two measures 

E|--------------------------| 
B|--------------------------| 
G|--8------3------5---------| 
D|--8------3------5---------| 
A|--6------1------3---------| 
E|--------------------------| 


Post-Chorus 1 (Almost Clean) 
(1:48 ?? 1:57) 

E|----------------------------------------------------------------| 
B|----------------------------------------------------------------| 
G|----------------------------------------------------------------| 
D|-13-13-13-13-13--12-12-17-17-17--10-10-10-10-10--10-10-10-10-10-| 
A|----------------------------------------------------------------| 
E|----------------------------------------------------------------| 


Verse Riff (1:58 ?? 2:18) 

Pre-Chorus (2:18 ?? 2:38) (play twice) 

Chorus (2:39 ?? 3:18) (play four times) 


Bridge (Almost Clean) 
(Play twice from 3:20 ?? 3:40) 

E|-----------------------------------------| 
B|----13----13----13----13----13---11---11-| 
G|-----------------------------------------| 
D|-10----10----10----10----10----8----8----| 
A|-----------------------------------------| 
E|-----------------------------------------| 

E|--------------------------------------------------| 
B|---11---11---8---8---8---8---8--8---8---8---8---8-| 
G|--------------------------------------------------| 
D|-8----8----5---5---5---5---5------5---5---5---5---| 
A|--------------------------------------------------| 
E|--------------------------------------------------| 

End by playing the Chorus three times from 3:51 to 4:20
	        

Written by Tom DeLonge/Ilan Rubin

See Also: