E-Chords
And Also The Trees

Virus Meadow(Tabs)

And Also The Trees

'Virus Meadow' by And Also The Trees 
==================================== 

tabbed by Jason Miller ([email protected]) 


Use a warm tone and plenty of spacious 
reverb.  Adding a little Chorus also helps. 
On the album version there is a continous 
picking of the open b-string... so if you 
have a sampler or delay pedal with infinite 
repeat, you can use it to add a little more 
depth. 

INTRO (until drums begin): 

e|-----0-----2-----------------| 
B|-0-0---0-0---0-0-0-3\2/3\2/3-| 
G|-----------------------------| 
D|-----------------------------| 
A|-----------------------------| 
E|-----------------------------| 

MAIN: 

e|-----0-----2---------------| 
B|-0-0---0-0---0-3\2/3\2/3p0-| 
G|---------------------------| 
D|---------------------------| 
A|---------------------------| 
E|---------------------------| 

Bridge: 

e|-0-----0-----0-----0-----2-----| 
B|---0-0---0-0---0-0---0-0---0---| 
G|-------------------------------| 
D|-------------------------------| 
A|-------------------------------| 
E|-------------------------------| 

e|-0-----0-----0-----0--------| 
B|---0-0---0-0---0-0----3-2-3-| 
G|----------------------------| 
D|----------------------------| 
A|----------------------------| 
E|----------------------------| 

Chorus...... not here yet! 

roll up this ad to continue

share this page

See Also: