E-Chords
Anathema

Internal Landscapes(Tabs)

Anathema

Tuning: C# G# C# G# G# D# 

Note: 2 and 4 times (x) you have to play after backslashes (\).There's no place in one line. 

Opening 
	   ff           ff             ff 
1-----4p0---------2p0-----7------4p0-----5----| 
2-----0-----------0------7-------0------5-----| 
3-----0------7----0--------------0------------| 
4-----2-----7-----0--------------2------------| 
5-----0-----------0--------------0------------| 
6-----0-----------0--------------0------------| 


Pre x 4 

1-----2p0---0-0-0-| 
2-----0-----0-0-0-| 
3-----0-----0-0-0-| 
4-----0-----0-0-0-| 
5-----------------| 
6-----------------| 

       Goodbye					                       My friend 
1---4p0---0-0-0----4p0---0-0-0----4p0---0-0-0-----4p0----0-0-0---\2p0---0-0-0---| 
2---0-----0-0-0----0-----0-0-0----0-----0-0-0-----0------0-0-0---\0-----0-0-0---| 
3---0-----0-0-0----0-----0-0-0----0-----0-0-0-----0------0-0-0---\0-----0-0-0---| 
4---2-----2-2-2----0-----2-2-2----2-----2-2-2-----0------2-2-2---\0-----0-0-0---|   x4 
5---0--------------0--------------0---------------0--------------\0-------------| 
6---0--------------0--------------0---------------0--------------\0-------------| 


    Life                                                         Will never end 
1---4p0---0-0-0----4p0---0-0-0----4p0---0-0-0-----4p0----0-0-0---\2p0---0-0-0---| 
2---0-----0-0-0----0-----0-0-0----0-----0-0-0-----0------0-0-0---\0-----0-0-0---| 
3---0-----0-0-0----0-----0-0-0----0-----0-0-0-----0------0-0-0---\0-----0-0-0---| 
4---2-----2-2-2----0-----2-2-2----2-----2-2-2-----0------2-2-2---\0-----0-0-0---|   x4 
5---0--------------0--------------0---------------0--------------\0-------------| 
6---0--------------0--------------0---------------0--------------\0-------------| 

    And I feel 	              like                   you 
1---0-0-0-0----4p0-0-0-0----0-0-0-0----2p0-0-0-0----\2p0-0-0-0-| 
2---0-0-0-0----0---0-0-0----0-0-0-0----0---0-0-0----\0---0-0-0-| 
3---0-0-0-0----0---0-0-0----0-0-0-0----0---0-0-0----\0---0-0-0-|  x4 
4---4-4-4-4----4---4-4-4----2-2-2-2----2---2-2-2----\0---0-0-0-| 
5---4-4-4-4----4---4-4-4----2-2-2-2----2---2-2-2----\0---------| 
6---4-4-4-4----4---4-4-4----2-2-2-2----2---2-2-2----\0---------| 

   And I breath                 on                  truth. 
1---0-0-0-0----4p0-0-0-0----0-0-0-0----2p0-0-0-0----\2p0-0-0-0-| 
2---0-0-0-0----0---0-0-0----0-0-0-0----0---0-0-0----\0---0-0-0-| 
3---0-0-0-0----0---0-0-0----0-0-0-0----0---0-0-0----\0---0-0-0-|  x2 
4---4-4-4-4----4---4-4-4----2-2-2-2----2---2-2-2----\0---0-0-0-| 
5---4-4-4-4----4---4-4-4----2-2-2-2----2---2-2-2----\0---------| 
6---4-4-4-4----4---4-4-4----2-2-2-2----2---2-2-2----\0---------| 

Bridge 
1---0-0-0-0----2p0-0-0-0-| 
2---0-0-0-0----0---0-0-0-| 
3---0-0-0-0----0---0-0-0-| 
4---2-2-2-2----2---2-2-2-| 
5---2-2-2-2----2---2-2-2-| 
6---0-0-0-0----0---0-0-0-| 


    Love is the life breath                                      of all I see. 
1---4p0---0-0-0----4p0---0-0-0----4p0---0-0-0-----4p0----0-0-0---\2p0---0-0-0---| 
2---0-----0-0-0----0-----0-0-0----0-----0-0-0-----0------0-0-0---\0-----0-0-0---| 
3---0-----0-0-0----0-----0-0-0----0-----0-0-0-----0------0-0-0---\0-----0-0-0---| 
4---2-----2-2-2----0-----2-2-2----2-----2-2-2-----0------2-2-2---\0-----0-0-0---|   x4 
5---0--------------0--------------0---------------0--------------\0-------------| 
6---0--------------0--------------0---------------0--------------\0-------------| 

    Love is true life                                             inside of me. 
1---4p0---0-0-0----4p0---0-0-0----4p0---0-0-0-----4p0----0-0-0---\2p0---0-0-0---| 
2---0-----0-0-0----0-----0-0-0----0-----0-0-0-----0------0-0-0---\0-----0-0-0---| 
3---0-----0-0-0----0-----0-0-0----0-----0-0-0-----0------0-0-0---\0-----0-0-0---| 
4---2-----2-2-2----0-----2-2-2----2-----2-2-2-----0------2-2-2---\0-----0-0-0---|   x4 
5---0--------------0--------------0---------------0--------------\0-------------| 
6---0--------------0--------------0---------------0--------------\0-------------| 

    And I know              you                     somehow 
1---0-0-0-0----4p0-0-0-0----0-0-0-0----2p0-0-0-0----\2p0-0-0-0-| 
2---0-0-0-0----0---0-0-0----0-0-0-0----0---0-0-0----\0---0-0-0-| 
3---0-0-0-0----0---0-0-0----0-0-0-0----0---0-0-0----\0---0-0-0-|  x4 
4---4-4-4-4----4---4-4-4----2-2-2-2----2---2-2-2----\0---0-0-0-| 
5---4-4-4-4----4---4-4-4----2-2-2-2----2---2-2-2----\0---------| 
6---4-4-4-4----4---4-4-4----2-2-2-2----2---2-2-2----\0---------| 

    As I hold               you                   in my heart, in my heart 
1---0-0-0-0----4p0-0-0-0----0-0-0-0----2p0-0-0-0----\2p0-0-0-0-| 
2---0-0-0-0----0---0-0-0----0-0-0-0----0---0-0-0----\0---0-0-0-| 
3---0-0-0-0----0---0-0-0----0-0-0-0----0---0-0-0----\0---0-0-0-|  x4 
4---4-4-4-4----4---4-4-4----2-2-2-2----2---2-2-2----\0---0-0-0-| 
5---4-4-4-4----4---4-4-4----2-2-2-2----2---2-2-2----\0---------| 
6---4-4-4-4----4---4-4-4----2-2-2-2----2---2-2-2----\0---------| 


There?s a fire             in the sky,            and I know its you 
1---0-0-0-0----4p0-0-0-0----0-0-0-0----2p0-0-0-0----\2p0-0-0-0-| 
2---0-0-0-0----0---0-0-0----0-0-0-0----0---0-0-0----\0---0-0-0-| 
3---0-0-0-0----0---0-0-0----0-0-0-0----0---0-0-0----\0---0-0-0-|  x4 
4---4-4-4-4----4---4-4-4----2-2-2-2----2---2-2-2----\0---0-0-0-| 
5---4-4-4-4----4---4-4-4----2-2-2-2----2---2-2-2----\0---------| 
6---4-4-4-4----4---4-4-4----2-2-2-2----2---2-2-2----\0---------| 


There`s a light, it`s all around, and I know its you, I know its you 
1---0-0-0-0----4p0-0-0-0----0-0-0-0----2p0-0-0-0----\2p0-0-0-0-| 
2---0-0-0-0----0---0-0-0----0-0-0-0----0---0-0-0----\0---0-0-0-| 
3---0-0-0-0----0---0-0-0----0-0-0-0----0---0-0-0----\0---0-0-0-|  x4 
4---4-4-4-4----4---4-4-4----2-2-2-2----2---2-2-2----\0---0-0-0-| 
5---4-4-4-4----4---4-4-4----2-2-2-2----2---2-2-2----\0---------| 
6---4-4-4-4----4---4-4-4----2-2-2-2----2---2-2-2----\0---------| 


    And I dream             like                     you 
1---0-0-0-0----4p0-0-0-0----0-0-0-0----2p0-0-0-0----\2p0-0-0-0-| 
2---0-0-0-0----0---0-0-0----0-0-0-0----0---0-0-0----\0---0-0-0-| 
3---0-0-0-0----0---0-0-0----0-0-0-0----0---0-0-0----\0---0-0-0-|  x4 
4---4-4-4-4----4---4-4-4----2-2-2-2----2---2-2-2----\0---0-0-0-| 
5---4-4-4-4----4---4-4-4----2-2-2-2----2---2-2-2----\0---------| 
6---4-4-4-4----4---4-4-4----2-2-2-2----2---2-2-2----\0---------| 

   ?cause I                 believe                  in truth. 
1---0-0-0-0----4p0-0-0-0----0-0-0-0----2p0-0-0-0----\2p0-0-0-0-| 
2---0-0-0-0----0---0-0-0----0-0-0-0----0---0-0-0----\0---0-0-0-| 
3---0-0-0-0----0---0-0-0----0-0-0-0----0---0-0-0----\0---0-0-0-|  x4 
4---4-4-4-4----4---4-4-4----2-2-2-2----2---2-2-2----\0---0-0-0-| 
5---4-4-4-4----4---4-4-4----2-2-2-2----2---2-2-2----\0---------| 
6---4-4-4-4----4---4-4-4----2-2-2-2----2---2-2-2----\0---------| 


     For I                  was always             there 
1---0-0-0-0----4p0-0-0-0----0-0-0-0----2p0-0-0-0----\2p0-0-0-0-| 
2---0-0-0-0----0---0-0-0----0-0-0-0----0---0-0-0----\0---0-0-0-| 
3---0-0-0-0----0---0-0-0----0-0-0-0----0---0-0-0----\0---0-0-0-|  x4 
4---4-4-4-4----4---4-4-4----2-2-2-2----2---2-2-2----\0---0-0-0-| 
5---4-4-4-4----4---4-4-4----2-2-2-2----2---2-2-2----\0---------| 
6---4-4-4-4----4---4-4-4----2-2-2-2----2---2-2-2----\0---------| 


    I will                  always                   be there... 
1---0-0-0-0----4p0-0-0-0----0-0-0-0----2p0-0-0-0----\2p0-0-0-0-| 
2---0-0-0-0----0---0-0-0----0-0-0-0----0---0-0-0----\0---0-0-0-| 
3---0-0-0-0----0---0-0-0----0-0-0-0----0---0-0-0----\0---0-0-0-|  x2 
4---4-4-4-4----4---4-4-4----2-2-2-2----2---2-2-2----\0---0-0-0-| 
5---4-4-4-4----4---4-4-4----2-2-2-2----2---2-2-2----\0---------| 
6---4-4-4-4----4---4-4-4----2-2-2-2----2---2-2-2----\0---------| 


1---0-0-0-0----2p0-0-0-0-| 
2---0-0-0-0----0---0-0-0-| 
3---0-0-0-0----0---0-0-0-| 
4---2-2-2-2----2---2-2-2-| 
5---2-2-2-2----2---2-2-2-| 
6---0-0-0-0----0---0-0-0-| 

Ending 
1---4p0---0-0-0----4p0---0-0-0----4p0---0-0-0-----4p0----0-0-0---\2p0---0-0-0---| 
2---0-----0-0-0----0-----0-0-0----0-----0-0-0-----0------0-0-0---\0-----0-0-0---| 
3---0-----0-0-0----0-----0-0-0----0-----0-0-0-----0------0-0-0---\0-----0-0-0---| 
4---2-----2-2-2----0-----2-2-2----2-----2-2-2-----0------2-2-2---\0-----0-0-0---|   x4 
5---0--------------0--------------0---------------0--------------\0-------------| 
6---0--------------0--------------0---------------0--------------\0-------------| 

1---4p0---0-0-0----4p0---0-0-0----9p0-0-0-0---9p0-0-0-0----12---| 
2---0-----0-0-0----0-----0-0-0----0---0-0-0---0---0-0-0--12-----| 
3---0-----0-0-0----0-----0-0-0----0---0-0-0---0---0-0-0---------| 
4---2-----2-2-2----0-----2-2-2----7---7-7-7---7---7-7-7---------| 
5---0--------------0--------------0-----------0-----------------| 
6---0--------------0--------------0-----------0-----------------| 

1---2p0---0-0-0---2p0---0-0-0---2p0---0-0-0---2p0-0-0-0---0-| 
2---0-----0-0-0---0-----0-0-0---0-----0-0-0---0---0-0-0---0-| 
3---0-----0-0-0---0-----0-0-0---0-----0-0-0---0---0-0-0---0-| 
4---0-----0-0-0---0-----0-0-0---0-----0-0-0---0---0-0-0---2-| 
5---0-------------0-------------0-------------0-----------0-| 
6---0-------------0-------------0-------------0-----------0-| 

roll up this ad to continue

share this page

See Also: