E-Chords
Anathema

J'ai Fait Une Promesse(Tabs)

Anathema

E-|--------------1---------------------3---------------------1-------- 
H-|--------3-----3---------------3-----3------------3-----3--3-------- 
G-|*----2-(2)-2---------------3-----3------------2-----2-------------- 
D-|*-0---------------------0------------------0----------------------- 
A-|------------------------------------------------------------------- 
E-|------------------------------------------------------------------- 
 
                   1.                  2.  
E|-------------3---|-------------------|--------3---------------------- 
H-------3-----3---|-----------------3-|-------3----------------------- 
G|----0-----0-----*|-----------3-----3-|------0------------------------ 
D|----------------*|--------3-----3----|-----0------------------------- 
A|--2--------------|-----1-------------|----2-------------------------- 
E|-----------------|-------------------|---3--------------------------- 
 
 
E|--------------1----------------0--1--------------3------------------ 
H--------3-----------------3----------------3-----3------------------ 
G|-----2-----2-----2-----2-----2----------3-----3--------------------- 
D|--0-----------------0----------------0------------------------------ 
A|-------------------------------------------------------------------- 
E|-------------------------------------------------------------------- 
 
 
E|--------------1----------------0--1--------------3-------------3---- 
H--------3-----------------3----------------3-----3------------3----- 
G|-----2-----2-----2-----2-----2----------0-----0--------------0------ 
D|--0-----------------0---------------------------------------0------- 
A|-------------------------------------3---------------------2-------- 
E|----------------------------------------------------------3--------- 
 
  
E-|--------------2--3---------------3-----------------3-----|--------- 
H-|--------3-----3------------3-----------------3-----------|--------- 
G-|*----2-----2------------0-----0-----------0-----0-------*|--------- 
D-|*-0-----------------------------------------------------*|--------- 
A-|---------------------3--------------3h2---------------2--|--------- 
E-|---------------------------------------3-----------------|--------- 
 
   1.                 2. 
E-|------------------|------3----|------------------------------------ 
H-|------------------|-----3-----|------------------------------------ 
G-|----3--------5----|----0------|------------------------------------ 
D-|------------------|---0-------|------------------------------------ 
A-|-1----1-1/3-----3-|--2--------|------------------------------------ 
E-|------------------|-3---------|------------------------------------ 
 
 
E|--------0------------------------------------------------------------ 
H--------------7-----------7-----5-----------3-----3----------3/5--3~~ 
G|-----7-----------7-\5--5-----------5-/3--3-----------3-/2--2--------- 
D|--0-----------------0-----------------0-----------------0------------ 
A|--------------------------------------------------------------------- 
E|--------------------------------------------------------------------- 
 
 
E|--------0------------------------------------------------------------ 
H--------------7-----------7-----5-----------3-----3-----------/8--7~~ 
G|-----7-----------7-\5--5-----------5-/3--3-----------3-/2--2--/8--7~~ 
D|--0-----------------0-----------------0-----------------0------------ 
A|--------------------------------------------------------------------- 
E|--------------------------------------------------------------------- 
 
 
E|--------0------------------------------------------------------------ 
H--------------7-----------7-----5-----------3-----3----------3/5--7~~ 
G|-----7-----------7-\5--5-----------5-/3--3-----------3-/2--2------7~~ 
D|--0-----------------0-----------------0-----------------0------------ 
A|--------------------------------------------------------------------- 
E|--------------------------------------------------------------------- 
 
 
E|--------0----------------------------------------------------2/3--2~~ 
H--------------7-----------7-----5-----------3-----3----------3------- 
G|-----7-----------7-\5--5-----------5-/3--3-----------3-/2--2--------- 
D|--0-----------------0-----------------0-----------------0------------ 
A|--------------------------------------------------------------------- 
E|--------------------------------------------------------------------- 
 
 
E|--------0-----------------3--2--------------2--0--------------------- 
H--------------7-----------------5-----------------3-----------/8--7~~ 
G|-----7-----------7-\5--5-----------5-/3--3-----------3-/2--2--/8--7~~ 
D|--0-----------------0-----------------0-----------------0------------ 
A|--------------------------------------------------------------------- 
E|--------------------------------------------------------------------- 
 
 
 
by: william di melo junior 

roll up this ad to continue

share this page

See Also: