E-Chords
Ammonia

Small Town(Tabs)

Ammonia

Key: D
Transcribed by Braamo ([email protected]) 
 
Drop D Tuning 
 
Introduction (repeated): 
 
   E                D  A        G 
E------4s0-----4s0--2--0------------------------ 
B-------------------3--2------------------------ 
G-------------------2--2------------------------ 
D--2-2-----2-2------0--2---(0)--5^-------------- 
A--2-2-----2-2---------0---(0)--5^-------------- 
D--2-2-----2-2-------------(0)--5^-------------- 
s=slide, ^=bend 
 
Verse: 
B  C# D   
B  C# A  G G 
 
Chorus: 
D# E  G A G A G C D D 
 
Solo: 
E----------------------------------------------- 
B--5-3--3-2--2-0--0----2-0--3-2--3-2--3-5------- 
G-------------------2--------------------------- 
D----------------------------------------------- 
A----------------------------------------------- 
D----------------------------------------------- 
 
Solo is played twice, first time quietly, second louder 
 
Song order: 
Introduction x 6 
Verse x 2 
Chorus x 4 
Verse x 2 
Solo 
Chorus x 4 
4 lots of chorus-length repetitions of D# and E 
Verse x 2 
Chorus x 4 
 
 
Braamo 
([email protected]) 
 

roll up this ad to continue

share this page

See Also: