E-Chords
Ammonia

Mint 400(Tabs)

Ammonia

Key: C#
Transcribed by Braamo ([email protected]) 
 
Introduction: 
Holds C# (x46664), but bass plays D, C#, D, C#, D, C#  Then 'A' for  
first time trough introduction, second time goes into verse chords. 
 
 
Verse contains 4 lines: 
Lines 1,2 and 4: 
 
    A / / / E / / / D / / / F / / / 
E---0-------0-------2-------1------------------- 
B---2-------0-------3-------1------------------- 
G---2-------1-------2-------2------------------- 
D---2-------2-------0-------3------------------- 
A---0-------2---------------3------------------- 
E-----------0---------------1------------------- 
 
Line 3: 
 
   A / / / A9 / / / D / / / F / / / 
E--0-------0--------2-------1------------------- 
B--2-------0--------3-------1------------------- 
G--2-------2--------2-------2------------------- 
D--2-------2--------0-------3------------------- 
A--0-------0----------------3------------------- 
E---------------------------1------------------- 
 
E (x79997) is played just before the chorus 
 
Chorus: 
 
   A / / / G# / / / D / / / E / / / 
E--5-------4--------5-------7------------------- 
B--5-------4--------7-------9------------------- 
G--6-------5--------7-------9------------------- 
D--7-------6--------7-------9------------------- 
A--7-------6--------5-------7------------------- 
E--5-------4------------------------------------ 
 
followed by: 
Verse 
Chorus 
Solo (backed by verse) 
Chorus (holding final E for 4 bars) 
Verse 
Introduction to finish 
 
Solo: 
E----------------------------------------------- 
B--5-3-5-3s2-3-2-3-5----6p5-----------5--------- 
G--------------------2------7p6-7p6-7----------- 
D----------------------------------------------- 
A----------------------------------------------- 
E----------------------------------------------- 
 
E--6-5-4(5)-6-5-4(5)--8-8-8-8-10---------------- 
B----------------------------------------------- 
G----------------------------------------------- 
D----------------------------------------------- 
A----------------------------------------------- 
E----------------------------------------------- 
 
E-12-12-12--12-12-12---16-14-------------------- 
B----------------------------14----16-14-------- 
G-------------------------------14-------16-14-- 
D----------------------------------------------- 
A----------------------------------------------- 
E----------------------------------------------- 
 
E---------------------------------------4-5----- 
B----------------------2(3)-2(3)-2(3)s5--------- 
G--4-2-1-2--4^--2------------------------------- 
D-----------------2----------------------------- 
A----------------------------------------------- 
E----------------------------------------------- 
^=bend, s=slide, p=pulloff, ()=hammer 
 
 
Braamo 
([email protected]) 

roll up this ad to continue

share this page

See Also: