E-Chords
Ammonia

Ken Carter(Tabs)

Ammonia

Key: C
Transcribed by Braamo ([email protected]) 
 
Introduction and verse (repeated): 
 
E----------0---------------0--------| 
B------------3---------------3------| 
G------2---------2-----2---------2--| 
D----2---2-----2-----2---2-----2----| 
A--0---------------0----------------| 
E-----------------------------------| 
 
E-----------------------------------| 
B----------5-3-------------5-3------| 
G------5---------5-----5---------5--| 
D----5---5-----5-----5---5-----5----| 
A--3---------------3----------------| 
E-----------------------------------| 
 
This can be a bit tricky and you can get away with playing  
chords A (x02220) and C (x35553) if you want. 
 
Chorus: 
 
   E / / / / / D E A / / / G / / / 
E--7-----------5-7-5-------3-------------------- 
B--9-----------7-9-5-------3-------------------- 
G--9-----------7-9-6-------4-------------------- 
D--9-----------7-9-7-------5-------------------- 
A--7-----------5-7-7-------5-------------------- 
E------------------5-------3-------------------- 
 
 
Riff played before concluding build-up 
 
E----------------------------------------------- 
B--5-3-3-3-3-3(5)-5-5-3-3-3-3-3(5)-5------------ 
G----------------------------------------------- 
D----------------------------------------------- 
A----------------------------------------------- 
E----------------------------------------------- 
 
E----------------------------------------------- 
B--5-3-3-3-3-3-7--5--3-3-3(5)----3-------------- 
G----------------------------------------------- 
D----------------------------------------------- 
A----------------------------------------------- 
E----------------------------------------------- 
 
Song concludes with the chorus chords and a final low E (022100). 
 
 
Braamo 
([email protected]) 
 

roll up this ad to continue

share this page

See Also: