E-Chords
Ammonia

Face Down(Tabs)

Ammonia

Key: D
Transcribed by Braamo ([email protected]) 
 
Drop D Tuning 
 
 
Intro: 
 
E----------------------------3-2-0-------------- 
B----------------------------------3-3---------- 
G-0-2-2-2-4-5-4-2-0-----12*----------0-2-2-2-4-5 
D--------------------12*------------------------ 
A----------------------------------------------- 
D----------------------------------------------- 
 
E---------------5-3-2-0-----3-2-0--------------- 
B-----------12*---------3-3-------3--3-0-1------ 
G-4-2-0--12*------------------------------------ 
D----------------------------------------------- 
A----------------------------------------------- 
D----------------------------------------------- 
 
E---3-2-0---5-----3-2-0------------------------- 
B---------3-----3-------3--3-0-1---------------- 
G--------------------------------0----12*-7*---- 
D----------------------------------12*---------- 
A----------------------------------------------- 
D----------------------------------------------- 
 
*= harmonic touch 
 
 
Verse (repeated): 
E----------------------------------------------- 
B----------------------------------------------- 
G----------------------------------------------- 
D---------7--7--5---5---5----------------------- 
A------5----------3----------------------------- 
D----------------------------------------------- 
 
 
Chorus: 
   D           D2  D             C 
E----------------------------------------------- 
B----------------7---------------5-------------- 
G----------------7---------------5-------------- 
D--0-0-0-0-0-0-0-7-0-0-0-0-0-0-0-5-------------- 
A--0-0-0-0-0-0-0---0-0-0-0-0-0-0---------------- 
D--0-0-0-0-0-0-0---0-0-0-0-0-0-0---------------- 
 
   D             B D             A 
E----------------------------------------------- 
B----------------4---------------2-----7-7---7-- 
G----------------4---------------2-----7-7---7-- 
D--0-0-0-0-0-0-0-4-0-0-0-0-0-0-0-2-0-0-7-7-0-7-- 
A--0-0-0-0-0-0-0---0-0-0-0-0-0-0---0-0-----0---- 
D--0-0-0-0-0-0-0---0-0-0-0-0-0-0---0-0-----0---- 
 
E----------------------------------------------- 
B--5-5---5---4-4---4---2-2---2------------------ 
G--5-5---5---4-4---4---2-2---2------------------ 
D--5-5-0-5---4-4-0-4---2-2-0-2------------------ 
A------0---------0---------0-------------------- 
D------0---------0---------0-------------------- 
 
E---------------0--------0---------------------- 
B------5-3--------3--------3--------5----------- 
G-----------------------------------5----------- (repeated) 
D----5--------4--------3------0-5-0-5----------- 
A--3--------2--------1--------0-5-0------------- 
D-----------------------------0-5-0------------- 
 
then D and C chords repeated before leading into verse. 
The second chorus leads into the following repeated ending. 
 
   Bb / / / F / / / C D / C D / 
E----------------------------------------------- 
B--1-------------------------------------------- 
G--3----------------5-7---5-7------------------- 
D--3--------3-------5-7-0-5-7-0----------------- 
A--1--------3-------3-5-0-3-5-0----------------- 
D-----------3-----------0-----0----------------- 
 
 
Braamo 
([email protected]) 
 

roll up this ad to continue

share this page

See Also: