E-Chords
Ammonia

Drugs(Tabs)

Ammonia

Key: E
Transcribed by Paul Stipack ([email protected]) 
 
INTRO: 
E-|---------------|- 
B-|-0-0-0-0-------|- 
G-|-1-1-1-1--4--2-|- 
D-|-2-2-2-2--4--2-|-(x 4) 
A-|-2-2-2-2--2--0-|- 
E-|-0-0-0-0-------|- 
 
VERSE & CHORUS RIFF:  
E-|------------------------------------|- 
B-|------------------------------------|- 
G-|------------------------------------|-(verse is clean tone 
D-|-------------------------------9--7-|- chorus is distortion) 
A-|--9h11-11-11-11b(12)r11-9-11---9--7-|- 
E-|--0----0--0-------------0-0----7--5-|- 
 
BRIDGE: 
E-|------------------------|------------------------|- 
B-|------------------------|------------------------|- 
G-|------------------------|------------------------|- 
D-|-9-9-11-11b(12)r11-9-11-|-9-9-11-11b(12)r11-9-11-|- 
A-|-0-0-0--0----------0-0--|-0-0-0--0----------0-0--|- 
E-|------------------------|------------------------|- 
 
E-|------------------------|------------------------|- 
B-|------------------------|------------------------|- 
G-|------------------------|------------------------|- 
D-|------------------------|------------------------|- 
A-|-9-9-11-11b(12)r11-9-11-|-9-9-11-11b(12)r11-9-11-|- 
E-|-0-0-0--0----------0-0--|-0-0-0--0----------0-0--|- 
 
E-|------------------------|------------------------|- 
B-|------------------------|------------------------|- 
G-|------------------------|------------------------|- 
D-|-9-9-11-11b(12)r11-9-11-|-9-9-11-11b(12)r11-9-11-|- 
A-|-0-0-0--0----------0-0--|-0-0-0--0----------0-0--|- 
E-|------------------------|------------------------|- 
 
E-|------|------|- 
B-|------|------|- 
G-|-6--4-|------|- 
D-|-6--4-|-6--7-|- 
A-|-4--2-|-6--7-|- 
E-|------|-4--5-|- 
 
OUTRO: 
E-|---------------|- 
B-|-0-0-0-0-------|- 
G-|-1-1-1-1--4--2-|- 
D-|-2-2-2-2--4--2-|-(x 4) 
A-|-2-2-2-2--2--0-|- 
E-|-0-0-0-0-------|- 
 
 
 
DRUGS by Ammonia 
Transcribed by Braamo ([email protected]) 
 
Chords required: 
Chord          String 
               EADGBE 
E              022100 
E7             020100 
B              x24442 
A              x02220 
D              x57775 
C#             x46664 
G#             466544 
A2           577655 
 
9th Chord = Drop two frets on the B string: e.g. 
A is x02220, whereas A9 is x02200 
 
Verse: 
 
E-------------------------| 
B-------------------------| 
G-------------------------| x 3 
D--4-6-4-6-6s7p6-4-6-4-2--| 
A-------------------------| 
E-------------------------| 
 
E-----------------------------| 
B-----------------------------| 
G-----------------------------| 
D--4-6-4-6-6s7p6-4-6-7-6-4-2--| 
A-----------------------------| 
E-----------------------------| 
 
 
Chorus: 
 
E / / / B / A / 
 
 
Bridge: 
 
A9 A / A9 A D9 D / D9 D E7 E / E7 E E7 E / E7 E 
A9 A / A9 A D9 D / D9 D C# B / G# A..... 
 
followed by one rendition of the verse and chorus to finish 
 
 
 
 
 
Ammonia's 'DRUGS' from the album 'MINT 400' 
 
Transcribed by Jeremy Martin [email protected] 
 
INTRO: 
 
|--------------------------------------------------------| 
|--------------------------------------------------------| 
|----------------------4---------------------------------| 
|--2-2-2-2-2-2-2-2-2---4---7---7---7---------------------| 
|--2-2-2-2-2-2-2-2-2---2---7---7---7---------------------| 
|--0-0-0-0-0-0-0-0-0-------5---5---5---------------------| 
 
VERSE: 
 
|--------------------------------------------------------| 
|--------------------------------------------------------| 
|--------------------------------------------------------| 
|--------------------------------------------------------| 
|-9---11---11---11---11---11^--9---11---9---7------------| 
|-0---0----0----0----0----0----0---0----7---5------------| 
 
 
I think you play the intro about 3 or 4 times, then go to  
the verse. 
 
KEY: For the ^ next to the 5th  11 in the verse, you bend  
                                0  down and then back up 
 
 

roll up this ad to continue

share this page

See Also: