E-Chords
Ammonia

Burning Plant Smell(Tabs)

Ammonia

Key: C
Transcribed by Braamo ([email protected]) 
 
 
Introduction is baseline, guitar joins at first crash: 
 
E----------------------------------------------- 
B----------------------------------------------- 
G---------------------------------------5--5---- 
D----0---0---0---4-4-4-2-0---7-5--5---5-5--5----  x 4 
A----0---0---0---0-0-0-0-0---7-5--5---5-3--3---- 
D----0---0---0---0-0-0-0-0---7-5--5---5--------- 
(4th time, hold the first C(x355xx) ) 
 
Verse: 
Baseline prominent with guitar chiming in with 
E----------------------------------------------- 
B---------3------------------------------------- 
G------------4---5---4-------------------------- 
D----------------------------------------------- 
A----------------------------------------------- 
D----------------------------------------------- 
at end of each line. 
 
Introduction as chorus with final C shifting to a high D (x577xx) 
 
Interlude (repeated twice before solo, and then through solo): 
E-------------------------------------------------------- 
B-------------------------------------------------------- 
G---7--7----------------------7--7-5--5--5--5-5-5-5-5-5-- 
D---7--7-3--3--3--3-3-3-3-3-3-7--7-5--5--5--5-5-5-5-5-5-- 
A---5--5-3--3--3--3-3-3-3-3-3-5--5-3--3--3--3-3-3-3-3-3-- 
D--------3--3--3--3-3-3-3-3-3---------------------------- 
 
Solo: 
 
... 
 
 
Ending: 
E----------------------------------------------- 
B---------------------------3------------------- 
G---2--2--2--2-2--2-2-5--5-----4--5-4-2--0------  x 3 1/2 
D---2--2--2--2-2--2-2-5--5---------------------- 
A---0--0--0--0-0--0-0-3--3---------------------- 
D----------------------------------------------- 
(4th time round, song ends on a x3543x - whatever the chord is) 
 
 
Braamo 
([email protected]) 
 

roll up this ad to continue

share this page

See Also: