E-Chords
Amber Run

Little Ghost(Tabs)

Amber Run

verse 1: 
        oh my god what I would've given,   to find the truth before you went 
e|---0------------------------------0----0-------------------------------0-| 
B|---0------------------------------0----0-------------------------------0-| 
G|---8------------------------------8----8-------------------------------8-| 
D|---9------------------------------9----9-------------------------------9-| 
A|---9------------------------------9----9-------------------------------9-| 
E|---7------------------------------0----9-------------------------------0-| 

        that if your heart was somehow tainted,  how you could still sleep in my bed  
e|---0----------------------------------0-------0--------------------------------0-| 
B|---0----------------------------------0-------0--------------------------------0-| 
G|---8----------------------------------8-------8--------------------------------8-| 
D|---8----------------------------------9-------9--------------------------------9-| 
A|---9----------------------------------9-------9--------------------------------9-| 
E|---7----------------------------------0-------9--------------------------------0-| 

eye ee yai.    eye ee yai  
e|------0---0-----------0---0--------| 
B|------0---0-----------0---0--------| 
G|------8---8-----------8---8--------| 
D|------9---9-----------9---9--------| 
A|------9---9-----------9---9--------| 
E|------7---0-----------7---0--------| 

verse 2, same pattern as V1: 
And if my eyes would never fail me, I could pick you out the crowd 
what I'd do to turn full circle, and run from you instead. 

Chorus:  
 Little Ghost well I don't want you. Little ghost I don't need you 
e|---0---------------------0---------0----------------------0--------| 
B|---0---------------------0---------0----------------------0--------| 
G|---8---------------------8---------8----------------------8--------| 
D|---9---------------------9---------9----------------------9--------| 
A|---9---------------------9---------9----------------------9--------| 
E|---7---------------------0---------7----------------------0--------| 

  Little Ghost well you're not welcome here any more 
e|---0---------------------------0-----------------0--------| 
B|---0---------------------------0-----------------0--------| 
G|---8---------------------------3-----------------4--------| 
D|---9---------------------------4-----------------6--------| 
A|---9---------------------------4-----------------6--------| 
E|---7---------------------------2-----------------x--------| 

eye ee yai.    eye ee yai  
e|------0---0-----------0---0--------| 
B|------0---0-----------0---0--------| 
G|------8---8-----------8---8--------| 
D|------9---9-----------9---9--------| 
A|------9---9-----------9---9--------| 
E|------7---0-----------7---0--------| 

verse 3:  
Oh I blamed it on misfortune, and the never changing tide.  
And what I've learned is love's a lesson, and that little ghost well you were mine. 

Chorus: 
Little ghost, I don't want you 
Little ghost, well I don't need you 
Little ghost, you're not welcome, here anymore. 

eye ee yai x4 or more. 

Chorus: 
Little ghost, I don't want you 
Little ghost, well I don't need you 
Little ghost, you're not welcome, here anymore. 

 

roll up this ad to continue

share this page

See Also: