E-Chords
Almafuerte

Triunfo Ticardo(Tabs)

Almafuerte

 
                                                  Triunfo 
Intro 
e|----------------------------------------------------------------------------------| 
b|----------------------------------------------------------------------------------| 
g|----------------------------------------------------------------------------------|     
d|---------------5~4----------------------------------5-----------------------------| 
a|-2--5--4--3----3~2--------------------------0-6-5-3-------------------------------| 
e|-0--3--2--1------------3-6-5-4--1-4-3-2-1-0------------3-6-5-4--1-4-3-2-0---------| 
 
 
e|----------------------------------------------------------------------------------| 
b|----------------------------------------------------------------------------------| 
g|----------------------------------------------------------------------------------|     
d|---------------5~4----------------------------------5-----------------------------| 
a|-2--5--4--3----3~2--------------------------0-6-5-3-------------------------------| 
e|-0--3--2--1------------3-6-5-4--1-4-3-2-1-0------------3-6-5-4--1-4-3-2-0---------| 
 
 
Verso 
e|----------------------------------------------------------------------------------------------| 
b|----------------------------------------------------------------------------------------------| 
g|-------9-------------------------------9---------------------9------------------------9-------| 
d|-------9----------9--12~11~9~11--------9-----------5~7-------9------------8~7~6-------9-------| 
a|-------7----------7--10~9-~7~9---------7-----------3~5-------7------------6~5~4-------7-------| 
e|--0-0---------0-0-----------------0-0-----0-0-0-0--------0-0-----0-0-0-0---------0-0----------| 
 
 
e|--------------------------------------------------------------| 
b|--------------------------------------------------------------| 
g|--------------------------------------------------------------| 
d|------5~7~8~7~5-----------------------------------------------| 
a|------3~5~6~5~3-----------------------------------------------| 
e|-0-0----------------------------------------------------------| 
 
 
Estribillo 
e|--------------------------------------------------------------| 
b|--------------------------------------------------------------| 
g|--------------3-------5--5------------------------------------| 
d|------5-----3-------5------5----------------------------------| 
a|----5-----1-------3----------3--------------------------------| 
e|--3-----------------------------------------------------------| 
 
 
 
Muy buen tema de Almafuerte...espero que les sirva 
Chau 
Y un saludo a mazzi 
 
M.C 

roll up this ad to continue

share this page

See Also: