E-Chords
Almafuerte

Memoria de siglos(Tabs)

Almafuerte

Key: E5
intro: 
e-|------------|----------------------|------------|------------ 
B-|------------|----------------------|------------|------------ 
G-|------------|----------------------|------------|------------ 
D-|------------|----------------------|------------|------------ 
A-|-----7-9-10-|-----7-10---9h10p9----|-----7-9-10-|-----7-12--- 
E-|-0-7--------|-0-7---------------10-|-0-7--------|-0-7-------- 
                                                                               
 
---------------|-------------|-----------|- 
---------------|-------------|-----------|- 
---------------|-------------|-----------|- 
---------------|-----12-11-9-|----7------|- 
-10-9h10p9-----|-10--10--9-7-|-5--5--5-4-|- 
-----------10--|--8----------|-3-----3-2-|- 
                                                                               
Riff 1: 
-|----------|----| 
-|----------|----| 
-|------6---|----| 
-|----7-4-9-|-x2-| 
-|-7--5---7-|----| 
-|-0--------|----| 
                                                                               
 
 
E5                              riff 1 
En lo que digo, nadie se engaña. 
Nos libramos del vencido. 
Todos barremos con saña, 
a los ídolo caídos. 
 
C5                  D5 
No serás siempre el primero. 
C5        D5 
La humana limitación,  
C5                    D5 
cambia a  capricho al puntero de toda 
           Riff 1 
competición. 
 
Olfateamos muchas cosas, 
entre prisas diariamente. 
Son verdades deliciosas, 
y verdades pestilentes. 
 
Nadie da nada en balde, sabelo. 
El candor ultimamente está muy bravo. 
Aunque la verdad escalde,  
sobran cadenas y esclavos. 
 
Libertad y vestigios, 
más vale ponerse a salvo. 
Muchos calzan gorro frigio, 
solamente por ser calvos. 
 
Cubre el cuerpo cualquier capa. 
El placer también demacra. 
Todo ser busca una tapa. 
Cada cual su lacra oculta. 
 
Aunque en virtudes abunde, 
y se juzgue inobjetable. 
Cuando el humano se hunde 
siempre busca un responsable. 
 
A menudo nos engañan, escondidas apetencias. 
La culpa ajena es barata, 
regalarla no nos cuesta. No 
Nada nos cuesta 
 
La hipocresía propasa todo ejemplo en esta tierra. 
Al asesinato en masa, los hombres lo llaman guerra. 
 
 
Email: [email protected] 

roll up this ad to continue

share this page

See Also: