E-Chords
Alligatoah

Trauerfeier Lied(Tabs)

Alligatoah

roll up this ad to continue

------------------------------------------------------------------------------- 
Trauerfeier Lied by Alligatoah  


Tuning: Standard  

e|---------------------------------------------------------------------------| 
B|------9--------------------------------------------------------------------| 
G|---------8-9------9--8-----------------------------------------------------| 
D|-----------------------9----11-11-11-11--13--13--13--13--------------------| 
A|---7-----------------------------------------------------------------------| 
E|---------------9-----------9--9--9--9--11--11--11--11----------------------| 

e|---------------------------9-----------11----------------------------------| 
B|------9--------------------------------------------------------------------| 
G|---------8-9------9--8-----9-----------11----------------------------------| 
D|-----------------------9---------------------------------------------------| 
A|---7-----------------------------------------------------------------------| 
E|---------------9-----------------------------------------------------------| 
 
share this page

See Also: