E-Chords
Alex Lloyd

Far Way(Tabs)

Alex Lloyd

roll up this ad to continue

Key: G
(intro) 
E |--------------- 
B |--------3---5-- 
G |----4---------- 
D |--5---5---5---- 
A |--------------- 
E |--------------- 

      G                   F                   Em             C 
E |--------------------------------------------------------------------- 
B |-----------12-------------------10--------------10--8-----------5---- 
G |-----12--------12---------10--------10------9---------9----5------5-- 
D |--12----12---------12-10----10---------10-9---9----------5---5------- 
A |--------------------------------------------------------------------- 
E |--------------------------------------------------------------------- 

      G                   F                   Em             C 
E |--------------------------------------------------------------------- 
B |-----------12-------------------10--------------10--8-----------5---- 
G |-----12--------12---------10--------10------9---------9----5------5-- 
D |--12----12---------12-10----10---------10-9---9----------5---5------- 
A |--------------------------------------------------------------------- 
E |--------------------------------------------------------------------- 

E |--------------------------------------- 
B |---------2-------------------1--------- 
G |----2-------2---2--------0------1-0-1-- 
D |--2---2-------2---2-------------------- 
A |--------------------------------------- 
E |-----------------------4---4----------- 

E |--------------- 
B |--------3---5-- 
G |----4---------- 
D |--5---5---5---- 
A |--------------- 
E |--------------- 

      G                   F                   Em             C 
E |--------------------------------------------------------------------- 
B |-----------12-------------------10--------------10--8-----------5---- 
G |-----12--------12---------10--------10------9---------9----5------5-- 
D |--12----12---------12-10----10---------10-9---9----------5---5------- 
A |--------------------------------------------------------------------- 
E |--------------------------------------------------------------------- 

      G                   F                   Em             C 
E |--------------------------------------------------------------------- 
B |-----------12-------------------10--------------10--8-----------5---- 
G |-----12--------12---------10--------10------9---------9----5------5-- 
D |--12----12---------12-10----10---------10-9---9----------5---5------- 
A |--------------------------------------------------------------------- 
E |--------------------------------------------------------------------- 

E |--------------------------------------- 
B |---------2-------------------1--------- 
G |----2-------2---2--------0------1-0-1-- 
D |--2---2-------2---2-------------------- 
A |--------------------------------------- 
E |-----------------------4---4----------- 

E |--------------- 
B |--------3---5-- 
G |----4---------- 
D |--5---5---5---- (3x) 
A |--------------- 
E |--------------- 

      D#                                 G 
E |--6--6--6---6---6--6--6-6-6-6-6--6--6--6--6-6-6-3- 
B |--10-10-10--10--10-8--8-8-8-8-10-10-10-8--8-8-8-3- 
G |--8--8--8---8---8--8--8-8-8-8-8--8--8--8--8-8-8-4-       (2x) 
D |--8--8--8---8---8--8--8-8-8-8-8--8--8--8--8-8-8-5- 
A |--6--6--6---6---6--6--6-6-6-6-6--6--6--6--6-6-6-5- 
E |------------------------------------------------3- 

A 
Always trying to find a piece of you in someone 
C 
Always trying to find someone in someone 
D#                                      G 
Nothing left to say but I can't find my way 

      G                   F                   Em             C 
E |--------------------------------------------------------------------- 
B |-----------12-------------------10--------------10--8-----------5---- 
G |-----12--------12---------10--------10------9---------9----5------5-- 
D |--12----12---------12-10----10---------10-9---9----------5---5-------   (2x) 
A |--------------------------------------------------------------------- 
E |--------------------------------------------------------------------- 

      G                   F                   Em             C 
E |--------------------------------------------------------------------- 
B |-----------12-------------------10--------------10--8-----------5---- 
G |-----12--------12---------10--------10------9---------9----5------5-- 
D |--12----12---------12-10----10---------10-9---9----------5---5------- 
A |--------------------------------------------------------------------- 
E |--------------------------------------------------------------------- 

      G                   F                   Em             C 
E |--------------------------------------------------------------------- 
B |-----------12-------------------10--------------10--8-----------5---- 
G |-----12--------12---------10--------10------9---------9----5------5-- 
D |--12----12---------12-10----10---------10-9---9----------5---5------- 
A |--------------------------------------------------------------------- 
E |--------------------------------------------------------------------- 

      G                   F                   Em             C 
E |--------------------------------------------------------------------- 
B |-----------12-------------------10--------------10--8-----------5---- 
G |-----12--------12---------10--------10------9---------9----5------5-- 
D |--12----12---------12-10----10---------10-9---9----------5---5------- 
A |--------------------------------------------------------------------- 
E |--------------------------------------------------------------------- 

      G                   F                   Em             C 
E |--------------------------------------------------------------------- 
B |-----------12-------------------10--------------10--8-----------5---- 
G |-----12--------12---------10--------10------9---------9----5------5-- 
D |--12----12---------12-10----10---------10-9---9----------5---5------- 
A |--------------------------------------------------------------------- 
E |--------------------------------------------------------------------- 

E |--------------------------------------- 
B |---------2-------------------1--------- 
G |----2-------2---2--------0------1-0-1-- 
D |--2---2-------2---2-------------------- 
A |--------------------------------------- 
E |-----------------------4---4----------- 
share this page

See Also: