E-Chords
Alex bueno

Ese Hombre Soy Yo(Tabs)

Alex bueno

roll up this ad to continue

Key: Cm
e|------8-10-10/11-10-11/15----------------11-10----------------10-8------| 
B|--6/8---------------------11/13~------13-------11----------11------9----| 
G|-----------------------------------12--------------(10)-10------------8-| 
D|------------------------------------------------------------------------| 
A|------------------------------------------------------------------------| 
E|------------------------------------------------------------------------| 

e|---8-6-----------8-10-10/11-10-11/15----------------11-10---------------| 
B|-9-----8-----6/8---------------------11/13~------13-------11----------11| 
G|---------8------------------------------------12--------------(10)-10---| 
D|------------------------------------------------------------------------| 
A|------------------------------------------------------------------------| 
E|------------------------------------------------------------------------| 

e|-10-8--------8-7-----------------------6-8-6-8-10-11-10-11-13-13/15-11--| 
B|------9----9-----8-------------8-9-8-9----------------------------------| 
G|---------8---------7---10-9-10------------------------------------------| 
D|------------------------------------------------------------------------| 
A|------------------------------------------------------------------------| 
E|------------------------------------------------------------------------| 

e|--15-16-15-16-15--------------15-16-15-16----------------15-16-15-16-15-| 
B|-----------------(12)-(15)----------------(13)-(16)---------------------| 
G|---------------------------12-----------------------12------------------| 
D|------------------------------------------------------------------------| 
A|------------------------------------------------------------------------| 
E|------------------------------------------------------------------------| 

e|----11-15-13----10-13-11---8-11-10------10-8-------------7-7/8----------| 
B|-13----------12----------8---------8-12--------7/9-8-7-8----------------| 
G|------------------------------------------------------------------------| 
D|------------------------------------------------------------------------| 
A|------------------------------------------------------------------------| 
E|------------------------------------------------------------------------| 

 Cm 
Señores, hagan algo, se esta muriendo un hombre 
                            A# (Riff 1) 
Llamen a alguien que sepa curar el dolor que da el 
    G#             G 
desengaño de una traición 

e|--15-11-15-13-10-13-11-8-11-10-6-10-8-----------------------------------| 
B|---------------------------------------(8)------------------------------| 
G|-------------------------------------------(8)--------------------------| 
D|------------------------------------------------------------------------| 
A|------------------------------------------------------------------------| 
E|------------------------------------------------------------------------| 

 Cm                                              A#  (Riff 2) 
Si, esta tirado en el suelo, no ven se esta desangrando, se esta 
                                G#                             G 
ahogando en el llanto como un cobarde, que alguien se apiade de el 
       Fm               G#                               G    G7 
debe haber un remedio para el mal de amor, no lo dejen morir 
   G                 Cm (Riff 3)               A# 
Porque ese hombre soy yo, tengo el alma y el cuerpo destrozado 
                      G#                                     G 
Caí en la trampa de haberme enamorado, me esta matando el desamor 
  G                 Cm (Riff 3)              A# 
Porque ese hombre soy yo, tengo en el pecho clavado un cuchillo 
                     G#                               G    G#          G 
Si no andan pronto me muero y les pido hagan algo por mi, saquenme de aquí 
                     Cm 
Porque ese hombre soy yo 

e|------8-10-10/11-10-11/15----------------11-10----------------10-8------| 
B|--6/8---------------------11/13~------13-------11----------11------9----| 
G|-----------------------------------12--------------(10)-10------------8-| 
D|------------------------------------------------------------------------| 
A|------------------------------------------------------------------------| 
E|------------------------------------------------------------------------| 

e|---8-6-----------8-10-10/11-10-11/15----------------11-10---------------| 
B|-9-----8-----6/8---------------------11/13~------13-------11----------11| 
G|---------8------------------------------------12--------------(10)-10---| 
D|------------------------------------------------------------------------| 
A|------------------------------------------------------------------------| 
E|------------------------------------------------------------------------| 

e|-10-8--------8-7-----------------------6-8-6-8-10-11-10-11-13-13/15-11--| 
B|------9----9-----8-------------8-9-8-9----------------------------------| 
G|---------8---------7---10-9-10------------------------------------------| 
D|------------------------------------------------------------------------| 
A|------------------------------------------------------------------------| 
E|------------------------------------------------------------------------| 

e|--15-16-15-16-15---------------15-16-15-16---------------15-16-15-16-15-| 
B|-----------------(12)-(15)-----------------(13)-(16)--------------------| 
G|---------------------------12------------------------12-----------------| 
D|------------------------------------------------------------------------| 
A|------------------------------------------------------------------------| 
E|------------------------------------------------------------------------| 

e|---------------15-16-15-16-15--------------15-16-15-16-15---------------| 
B|-(12)-(15)--------------------(13)-(16)-------------------(12)-(15)-----| 
G|-----------12---------------------------12--------------------------12--| 
D|------------------------------------------------------------------------| 
A|------------------------------------------------------------------------| 
E|------------------------------------------------------------------------| 

e|-15-16-15-16-15-------15-16-16-16-16-15-------15-16-16-16-16-15-------15| 
B|----------------13-16-------------------13-16-------------------12-15---| 
G|------------------------------------------------------------------------| 
D|------------------------------------------------------------------------| 
A|------------------------------------------------------------------------| 
E|------------------------------------------------------------------------| 


e|-16-16-16-16-15-------15-16-16-16-16-15-------15-16-16-16-16-15-------15| 
B|----------------12-15-------------------13-16-------------------13-16---| 
G|------------------------------------------------------------------------| 
D|------------------------------------------------------------------------| 
A|------------------------------------------------------------------------| 
E|------------------------------------------------------------------------| 


e|-16-16-16-16-15----11-15-13----10-13-11---8-11-10------10-8-------------| 
B|----------------13----------12----------8---------8-12--------7/9-8-7-8-| 
G|------------------------------------------------------------------------| 
D|------------------------------------------------------------------------| 
A|------------------------------------------------------------------------| 
E|------------------------------------------------------------------------| 

e|-7-7/8------------------------------------------------------------------| 
B|------------------------------------------------------------------------| 
G|------------------------------------------------------------------------| 
D|------------------------------------------------------------------------| 
A|------------------------------------------------------------------------| 
E|------------------------------------------------------------------------| 

   Cm 
Hay donde están los amigos de este hombre que sufre y se arrastra 
     A# 
en el suelo como un perro sin dueño 
                  G#                                         G 
No aparece un cristiano que le tienda una mano y le de un consuelo 

e|--15-11-15-13-10-13-11-8-11-10-6-10-8-----------------------------------| 
B|---------------------------------------(8)------------------------------| 
G|-------------------------------------------(8)--------------------------| 
D|------------------------------------------------------------------------| 
A|------------------------------------------------------------------------| 
E|------------------------------------------------------------------------| 

    Cm                                   A# 
Hay si ha bebido bastante ya nadie le respeta ahora es solo un borracho 
              G#                                                 G      G7 
Pero nadie comprende que el es un ser humano que esta pagando muy caro 
   G                Cm (Riff 1)                A# 
Porque ese hombre soy yo, tengo el alma y el cuerpo destrozado 
                      G#                                   G 
Caí en la trampa de haberme enamorado me esta matando el desamor 
                     Cm 
Porque ese hombre soy yo... 

e|--15-15-15-15-15-15-15-15-15-15-15-15-15-15-15-15-15-15-15-15-15-15-15--| 
B|------------------------------------------------------------------------| 
G|------------------------------------------------------------------------| 
D|------------------------------------------------------------------------| 
A|------------------------------------------------------------------------| 
E|------------------------------------------------------------------------| 

                                               G                Cm 
                                  (soy yo)       ...Hayyy dios mío... 
e|-15-15-15-15-15-15-15-15-15-15-15==--18-16-15----15-16-18-16-15----15-16| 
B|----------------------------------------------18----------------18------| 
G|------------------------------------------------------------------------| 
D|------------------------------------------------------------------------| 
A|------------------------------------------------------------------------| 
E|------------------------------------------------------------------------| 

                                                       Cm 
                                 (soy yo)   ...diosito lindo yo te pido... 
e|-18-16-15----15-16-18-16-15----15-16-18-16-15---------------------------| 
B|----------18----------------18----------------18-16-15-13-11/12-12/13---| 
G|------------------------------------------------------------------------| 
D|------------------------------------------------------------------------| 
A|------------------------------------------------------------------------| 
E|------------------------------------------------------------------------| 

                                                                      G 
...hay que me mande un... (Soy yo) ...cristiano que me ayude en este lío... 
e|-------------11-------11-------11-------13-------11---------------------| 
B|-13/15-15==-----13-------13-------13-------13-------13----11/12-12/13---| 
G|-------------------12-------12-------12-------12-------12---------------| 
D|------------------------------------------------------------------------| 
A|------------------------------------------------------------------------| 
E|------------------------------------------------------------------------| 

                    Cm          G                          Cm         G 
 ...(Soy yo)...esa mujer me engaño... (Soy yo)... de este pesao se burlo 
e|-------------15-15-13---------------------------------------------------| 
B|-13/15-15==--16==-----16-11/12-12/13-13/15-15==--13-11------------------| 
G|-------------------------------------------------------13-12-12-X-10----| 
D|------------------------------------------------------------------------| 
A|------------------------------------------------------------------------| 
E|------------------------------------------------------------------------| 

||||||||||||||||||||||||||||||||||||||||||||||||||||||||||||||||||||||||||| 

Riff 1: 
e|------8-10/11-8/10-6---------------| 
B|--6/8----------------6-------------| 
G|-----------------------------------| 
D|-----------------------------------| 
A|-----------------------------------| 
E|-----------------------------------| 

Riff 2: 
e|------8-10/11-8/10-6/10-----8-10/11-8/10-6/10-----8-10/11-8/10-6/10-| 
B|--6/8-------------------6/8-------------------6/8-------------------| 
G|--------------------------------------------------------------------| 
D|--------------------------------------------------------------------| 
A|--------------------------------------------------------------------| 
E|--------------------------------------------------------------------| 

Riff 3: 
e|------8-10-10/11-10-11/15----------| 
B|--6/8---------------------11/13~---| 
G|-----------------------------------| 
D|-----------------------------------| 
A|-----------------------------------| 
E|-----------------------------------| 

Acordes: 
Cm          A#          G#          G           G7          Fm 
e|---3---|  e|---1---|  e|---4---|  e|---3---|  e|---3---|  e|---1---| 
B|---4---|  B|---3---|  B|---4---|  B|---3---|  B|---3---|  B|---1---| 
G|---5---|  G|---3---|  G|---5---|  G|---0---|  G|---4---|  G|---1---| 
D|---5---|  D|---3---|  D|---6---|  D|---0---|  D|---3---|  D|---3---| 
A|---3---|  A|---1---|  A|---6---|  A|---2---|  A|---5---|  A|---3---| 
E|-------|  E|-------|  E|---4---|| E|---3---|  E|---3---|  E|---1---| 

Simbologia: 
/ : deslizar 
(): Palm Mute 
~ : Vibrato 
X : Nota muda 

Bueno, espero que les guste mi versión de este gran tema 
que saque con mucho cuidado, suena muy parecido al original 

                  Diego Tobar Dubost 
                  Antofagasta, chile (23/11/07)
share this page

See Also: