E-Chords
Alex Aiono

Roses - The Chainsmokers(Tabs)

Alex Aiono

roll up this ad to continue

 
 


 e|-------------------------------------------------------| 
 b|-----5---5--5----2---2--0----9---9--9---9---7---7------| 
 G|-------------------------------------------------------|  
 D|-------------------------------------------------------| 
 A|---4---4---4---0---0---0---7---7---7--7---6---6--------| 
 E|-------------------------------------------------------| x7 


 e|-------------------------------------------------------| 
 b|-----5---5--5----2---2--0----9---9--9---7---7---7------| 
 G|-------------------------------------------------------|  
 D|-------------------------------------------------------| 
 A|---4---4---4---0---0---0---7---7---7--6---6---6--------| 
 E|-------------------------------------------------------| x4 


 e|-------------------------------------------------------| 
 b|-----5---5--5----2---2--0----9---9--9--7---------------| 
 G|-------------------------------------------------------|  
 D|-------------------------------------------------------| 
 A|---4---4---4---0---0---0---7---7---7---6---------------| 
 E|-------------------------------------------------------| 


 e|-------------------------------------------------------| 
 b|--5--5--9-----2------9---9--9--5--5--9--2-----9---9--9-| 
 G|-------------------------------------------------------|  
 D|-------------------------------------------------------| 
 A|--4--4--7---0---0--7---7---7---4--4--7--0---7---7---7--| 
 E|-------------------------------------------------------| x2 


 e|-------------------------------------------------------| 
 b|-----5---5--5----2---2--2----9---9---------------------| 
 G|-------------------------------------------------------|  
 D|-------------------------------------------------------| 
 A|---4---4---4---0---0---0---7---7-----------------------| 
 E|-----------------------------------0-------------------| 
 
share this page

See Also: