E-Chords
Airbourne

Women On Top(Tabs)

Airbourne

roll up this ad to continue

(intro) 

E|----------------------| 
B|----------------------| 
G|-2-2---2--------------| 
D|-2-2---2--------------|  play that 
A|-0-0---0--------------|i think 12 times 
E|-----3----------------| 

(riff 2) 
E|-------------------| 
B|----------x-3------|play that i think 
G|-2-2---2--x-2------| 4 times 
D|-2-2---2--x-0------| 
A|-0-0---0-----------| 
E|-----3-------------| 
share this page

See Also: