E-Chords
Airbourne

Whats Eatin You(Tabs)

Airbourne

roll up this ad to continue

(riff 1 - 4x) 
|--------------------------------3-----x--x----------------------| 
|-----------------------------3--3-----x--x----------------------| 
|-2----2-2-2----2-2-2---2-2---2--------x--x----------------------| 
|-2----2-2-2----2-2-2---2-2---0--0-----x--x----------------------| 
|-0----0-0-0----0-0-0---0-0------2-----x--x----------------------| 
|--------------------------------3-----x--x---12\----------------| 

(riff 2) 
|---------------po--po--------------po---po------------------| 
|------------------------3-3---------------------------------| 
|---------2-2------------2-2--2-2---2-0----------------------| 
|-2-------2-2---2-0------0-0--2-2-------2-0------------------| 
|-2-------0-0-------2-0-------0-0----------------------------| 
|-0----0-----------------------------------------------------| 
    p.m^ 

|--------------po---------------3--3---------------------------| 
|-------------------po----------3--3-----3---------------------| 
|-------2-2------------------------------2---------------------| 
|-2-2---2-2----2-0--------------0--0-----0---------------------| 
|-2-2---0-0---------2-0---------2--2---------------------------| 
|-0-0---------------------------3--3-------------------12\-----| 

(Refrão) 
                                       (1/2) 
|--------------po-------2-2---3--------------------------------| 
|-------3---------------3-3---3--------------------------------| 
|--2-2--2---2-----------2-2---2--------2-----------------------| 
|--2-2--0---2--2-0------0-0---0--------2-----------------------| 
|--0-0------0--0-----------------------0-----------------------| 
|-----------------------------------------2^-------------------| 
                                          bend 

(riff 1) 
(riff 2) 
(Refrão) 
(solo) 
(riff 1) 
share this page

See Also: