E-Chords
Airbourne

Stand Up For Rock N Roll(Tabs)

Airbourne

roll up this ad to continue

(intro - guitar 1 and 2) 

E|--2-------2-------2-------2---------| 
B|----2-3-0---2-3-0---2-3-0---2-3-0---| 
G|------------------------------------| 
D|------------------------------------| 
A|------------------------------------| 
E|------------------------------------| 

E|------------------------------------| 
B|------------------------------------| 
G|------------------------------------| 
D|--4---------------------------------| 
A|--2---------------------------------| 
E|------------------------------------| 

E|-3-------3-------3-------3----------| 
B|---2-3-0---2-3-0---2-3-0---2-3-0----| 
G|------------------------------------| 
D|------------------------------------| 
A|------------------------------------| 
E|------------------------------------| 

E|------------------------------------| 
B|------------------------------------| 
G|------------------------------------| 
D|------------------------------------| 
A|-5----------------------------------| 
E|-3----------------------------------| 

E|-2-------2-------2-------2----------| 
B|---2-3-0---2-3-0---2-3-0---2-3-0----| 
G|------------------------------------| 
D|------------------------------------| 
A|------------------------------------| 
E|------------------------------------| 

E|------------------------------------| 
B|------------------------------------| 
G|------------------------------------| 
D|------------------------------------| 
A|-2----------------------------------| 
E|-0----------------------------------| 

E|-3-------3-------3-------3----------| 
B|---2-3-0---2-3-0---2-3-0---2-3-0----| 
G|------------------------------------| 
D|------------------------------------| 
A|------------------------------------| 
E|------------------------------------| 

E|------------------------------------| 
B|------------------------------------| 
G|------------------------------------| 
D|------------------------------------| 
A|-5----------------------------------| 
E|-3----------------------------------| 

E|-4-------4-------4-------4----------| 
B|---4-5-0---4-5-0---4-5-0---4-5-0----| 
G|------------------------------------| 
D|------------------------------------| 
A|------------------------------------| 
E|------------------------------------| 

E|------------------------------------| 
B|------------------------------------| 
G|-4----------------------------------| 
D|-4----------------------------------| 
A|-2-2-2-2-2-2-2-2-2-2-2-2-2-2-2-2----| 
E|------------------------------------| 


E|-3-------3-------3-------3----------| 
B|---2-3-0---2-3-0---2-3-0---2-3-0----| 
G|------------------------------------| 
D|------------------------------------| 
A|------------------------------------| 
E|------------------------------------| 

E|-3----------------------------------| 
B|-3----------------------------------| 
G|-0----------------------------------| 
D|-0----------------------------------| 
A|------------------------------------| 
E|-3-3-3-3-3-3-3-3-3-3-3-3-3-3-3-3----| 


E|-4-------4-------4-------4----------| 
B|---4-5-0---4-5-0---4-5-0---4-5-0----| 
G|------------------------------------| 
D|------------------------------------| 
A|------------------------------------| 
E|------------------------------------| 

E|------------------------------------| 
B|------------------------------------| 
G|-4----------------------------------| 
D|-4----------------------------------| 
A|-2-2-2-2-2-2-2-2-2-2-2-2-2-2-2-2----| 
E|------------------------------------| 

E|-3-------3-------3-------3----------| 
B|---2-3-0---2-3-0---2-3-0---2-3-0----| 
G|------------------------------------| 
D|------------------------------------| 
A|------------------------------------| 
E|------------------------------------| 

E|-3----------------------------------| 
B|-3----------------------------------| 
G|-0----------------------------------| 
D|-0----------------------------------| 
A|------------------------------------| 
E|-3-3-3-3-3-3-3-3-3-3-3-3-3-3-3-3----| 


E|-2-------2-------2-------2----------| 
B|---2-3-0---2-3-0---2-3-0---2-3-0----| 
G|------------------------------------| 
D|------------------------------------| 
A|------------------------------------| 
E|------------------------------------| 

E|------------------------------------| 
B|------------------------------------| 
G|------------------------------------| 
D|-2----------------------------------| 
A|-2----------------------------------| 
E|-0-0-0-0-0-0-0-0-0-0-0-0-0-0-0-0----| 

E|-3-------3-------3-------3----------| 
B|---2-3-0---2-3-0---2-3-0---2-3-0----| 
G|------------------------------------| 
D|------------------------------------| 
A|------------------------------------| 
E|------------------------------------| 

E|-3----------------------------------| 
B|-3----------------------------------| 
G|-0----------------------------------| 
D|-0----------------------------------| 
A|------------------------------------| 
E|-3-3-3-3-3-3-3-3-3-3-3-3-3-3-3-3----| 
share this page

See Also: