E-Chords
Airbourne

No One Fits Me (better Than You)(Tabs)

Airbourne

roll up this ad to continue

Introdução - Guitarra Base 

e|------------|---------| 
B|------------|---------| 
G|------------|---------|  
D|-9-9--7--5--|-9-9--7--| 
A|-7-7--5--3--|-7-7--5--| 
E|------------|---------| 

Introdução - Guitarra Solo 

e|---------|---------| 
B|-5---5---|-5---3---| 
G|-7b--7b--|-7b--5b--| 
D|---------|---------| 
A|---------|---------| 
E|---------|---------| 

Riff 1 (Verso) - Guitarra Base ou Solo 

e|----------------------------| 
B|----------------------------| 
G|----------------------------| 
D|----------------------------| 
A|-0-7-5--------------5-6-0---| 
E|-------7-5-0--0-5-8---------| 

Pré-Refrão - Guitarra Base  

e|-----------------| 
B|-----------------| 
G|-----------------|  
D|-5--5--5--5--5-5-| 
A|-3--3--3--3--3-3-| 
E|--0--0--0--0-----| 

Refrão - Guitarra Base e Solo 

e|------------|-------| 
B|------------|-------| 
G|------------|-------|  
D|-9-9--7--5--|-9-9---| 
A|-7-7--5--3--|-7-7---| 
E|------------|-------| 


Solo - Guitarra Solo 

e|-------0-5-0-8-----------------------------------| 
B|---------------0-5-0-8---------------------------| 
G|-7b-7b-----------------7b-5---5-7b-5~~--7/9b-----| 
D|----------------------------7--------------9br~~-| 
A|-------------------------------------------------| 
E|-------------------------------------------------| 

e|----7-------------------| 
B|------10-7----7-10-10b--| 
G|-9b--------9b-----------| 
D|------------------------| 
A|------------------------| 
E|------------------------| 

e|----12-----------12--------| 
B|------15-12b-------15-12b--| 
G|-14b----------14b----------| 
D|---------------------------| 
A|---------------------------| 
E|---------------------------| 

e|-------------------------------------------------------|-------| 
B|-15-14-12---------12----12----12-----------------------|-8br~~-| 
G|---------14-12------14b---14b---14b-13--14b12br---12~~-|-------| 
D|--------------14b-------------------------------14-----|-------| 
A|-------------------------------------------------------|-------| 
E|-------------------------------------------------------|-------| 

>> Ordem da Música: 
-Introduction (4x) 
-Riff 1 (6x) 
-Pre-Chorus (1x) 
-Chorus (4x) 
-Riff 1 (6x) 
-Pre-Chorus (1x) 
-Chorus (4x) 
-Solo (1x) 
-Riff 1 (6x) 
-Pre-Chorus (1x) 
-Chorus (8x) 
-Riff 1 (8x) 
Solo-Improvised 
share this page

See Also: