E-Chords
Airbourne

My Dynamite Will Blow You Sky High(Tabs)

Airbourne

roll up this ad to continue

Intro 2x: 

E|------------------------------------------------------| 
A|------------------------------------------------------| 
G|------------------------------------------------------| 
D|--2---2--5-5/7-5/7--5-5/7-5/7-7-5-7-9-7-5-2------2----| 
A|--2---2--5-5/7-5/7--5-5/7-5/7-7-5-7-9-7-5-2--3/5-0----| 
E|--0-3-0--3-3/5-3/5--3-3/5-3/5-5-3-5-7-5-3-0-----------| 

Verso: 

E|----------------|-----------| 
B|----------------|-----------| 
G|----7---7-7-----|-----7-----| 
D|--2-7-7-7-7-77--|--2--7--7--| 
A|--2-5-7-5-5-77--|--2--5--7--| 
E|--0---5-----55--|--0-----5--| 

Pré- Refrão: 

E|----------------------------------| 
B|----------------------------------| 
G|----------------------------------| 
D|--9-9-9-9-9-9-9-9-9-9--5-6-7-8-9--| 
A|--9-9-9-9-9-9-9-9-9-9--5-6-7-8-9--| 
E|--7-7-7-7-7-7-7-7-7-7--3-4-5-6-7--| 

Refrão:                                              

E|------------------------------------------------------| 
A|------------------------------------------------------| 
G|------------------------------------------------------| 
D|--2---2--5-5/7-5/7--5-5/7-5/7-7-5-7-9-7-5-2------2----| 
A|--2---2--5-5/7-5/7--5-5/7-5/7-7-5-7-9-7-5-2--3/5-0----| 
E|--0-3-0--3-3/5-3/5--3-3/5-3/5-5-3-5-7-5-3-0-----------| 
share this page

See Also: