E-Chords
Airbourne

Heartbreaker(Tabs)

Airbourne

roll up this ad to continue

(intro riff 4x) 

         pm /////////////////////////////// 
e|--------------------------------------------------------------------------| 
b|--------------------------------------------------------------------------| 
g|----2--2------------------------------------------------------------------| 
d|----2--2--------4--------5-----4--5--5--5---------------------------------| 
a|----0--0--0--0--0--0--0--0--0--0--0--0--0---------------------------------| 
e|--------------------------------------------------------------------------| 

         pm //////////////////////////             end of 4th time 
e|--------------------------------------------------|-----------------------| 
b|--------------------------------------------------|-----------------------| 
g|----2--2------------------------------------------|--2--------------------| 
d|----2--2--------5--------4------------------------|--2--------------------| 
a|----0--0--0--0--0--0--0--0--0--3--0--0--0---------|--0--------------------| 
e|-------------------------------------------3------|-----------------------| 
                              1/4 bend    1/4 bend 

(verse - rythm guitar plays palm muted a chord all throughout the verse) 

e|--------------------------------------------------------------------------| 
b|--------------------------------------------------------------------------| 
g|----7--7------------------------------------------------------------------| 
d|----5--5--------7--7------------------------------------------------------| 
a|----------------5--5--------7--7------------------------------------------| 
e|----------------------------5--5------------------------------------------| 
                                                  pm //////// 
e|--------------------------------------------------------------------------| 
b|--------------------------------------------------------------------------| 
g|----7--7------------------------------------------------------------------| 
d|----5--5--------7--7------------------------------------------------------| 
a|----------------5--5--------7--7-----------7--7----7--7--7----------------| 
e|----------------------------5--5--------8--5--5----5--5--5----------------| 
                                       1/4 bend 
         pm ///////     pm ///////    pm ///// 
e|--------------------------------------------------------------------------| 
b|--------------------------------------------------------------------------| 
g|----7--7--7--7--7---------------------------------------------------------| 
d|----5--5--5--5--5--7--7--7--7--7------------------------------------------| 
a|-------------------5--5--5--5--5--7--7--7--7-----7--7--7------------------| 
e|----------------------------------5--5--5--5--8--5--5--5------------------| 
                                             1/4 bend 
(pre-Chorus) 
e|--------------------------------------------------------------------------| 
b|--------------------------------------------------------------------------| 
g|----------------7---------------------------------------------------------| 
d|----2--5--------7--------7------------------------------------------------| 
A|----2--5--------5--------7-(play until Chorus)----------------------------| 
e|----0--3-----------------5------------------------------------------------| 

(Chorus) 
e|--------------------------------------------------------------------------| 
b|--------------------------------------------------------------------------| 
g|----2----------------------------------7--------5--------2----------------| 
d|----2--------2--------5----------------7--------5--------2----------------| 
a|----0--------2--------5----------------5--------3--------0----------------| 
e|-------------0--------3---------------------------------------------------| 

e|--------------------------------------------------------------------------| 
b|--------------------------------------------------------------------------| 
g|----2----------------------------------7--------5--------2--------2--2----| 
d|----2--------2--------5----------------7--------5--------2--------2--2----| 
a|----0--------2--------5----------------5--------3--------0--------0--0----| 
e|-------------0--------3---------------------------------------------------| 

e|--------------------------------------------------------------------------| 
b|--------------------------------------------------------------------------| 
g|----2----------------------------------7--------5--------2----------------| 
d|----2--------2--------5----------------7--------5--------2----------------| 
a|----0--------2--------5----------------5--------3--------0----------------| 
e|-------------0--------3---------------------------------------------------| 

e|--------------------------------------------------------------------------| 
b|--------------------------------------------------------------------------| 
g|----2----------------------------------7--5--6--7----5--6--7--5-----------| 
d|----2--------2--------5----------------7--5--6--7----5--6--7--5-----------| 
a|----0--------2--------5----------------5--3--4--5----3--4--5--3-----------| 
e|-------------0--------3---------------------------------------------------| 

(intro riff 2x) 
(verse 2 - repeat 1st verse) 
(pre-Chorus) 
(Chorus) 
(bridge) 
(solo) 
(Chorus) 

(outro riff - play intro twice, but replace last bar with...) 
e|-------------------------------| 
b|-------------------------------| 
g|----2--2----7-----7--------2---| 
d|----2--2----5-----4--------2---| 
a|----0--0-------0-----0--3--0---| 
e|-------------------------------| 
                       1/4 bend 
share this page

See Also: