E-Chords
Airbourne

Heads Are Gonna Roll(Tabs)

Airbourne

roll up this ad to continue

(intro riff) 

E|---------------------------------------------------------------------------| 
B|---------------------------------------------------------------------------| 
G|---------------------------------------------------------------------------| 
D|-4---4-4-2-----------2-----------------------------------------------------| 
A|-4---------0-4-2-0-2-0---play 4 times--------------------------------------| 
E|-2-------------------------------------------------------------------------| 

(verse) 
E|---------------------------------------------------------------------------| 
B|---------------------------------------------------------------------------| 
G|---------------------------------------------------------------------------| 
D|-2-2-4-4--4-4-2-2-play each riff twice,and play this-2-4-2-----------------| 
A|-2-2-4-4--4-4-2-2------------------------------------0-2-0-4---------------| 
E|-0-0-2-2--2-2-0-0------------------------------------------2---------------| 

E|---------------------------------------------------------------------------| 
B|---------------------------------------------------------------------------| 
G|---------------------------------------------------------------------------| 
D|-44-x-44-2-4-44-22-2--2-4-2------------------------------------------------| 
A|-44-x-44-2-4-44-22-2--0-2-0-4----play 4 times then go to Chorus riff-------| 
E|-22-x-22-0-2-22-00-0--------2----------------------------------------------| 

(Chorus riff) 
E|---------------------------------------------------------------------------| 
B|---------------------------------------------------------------------------| 
G|--9------------------------------------------------------------------------| 
D|--9----9-----2-4--44-4-44-2-4----------------------------------------------| 
A|--7----9-----2-4--44-4-44-2-4----------------------------------------------| 
E|-------7-----0-2--22-2-22-0-2----------------------------------------------| 
share this page

See Also: