E-Chords
Airbourne

Cradle To The Grave(Tabs)

Airbourne

roll up this ad to continue

 
E|-------------------------| 
B|-------2-1---1-2---------| 
G|-------------------------| 
D|----0------0-----2-x-2---| 
A|-----------------0-x-0---| 
E|-0-----------------------| 
 

Riff Inicial e Refrão - Guitarra Base 

 
E|----3----------| 
B|----3----------| 
G|----0----------| 
D|-2--0--2-x-2---| 
A|-2--2--0-x-0---| 
E|-0--3----------| 
 

Riff 2 - Duas Guitarras 

 
E|-3------------------|-3------------------| 
B|-3------------3-3-3-|-3---------3-3-3-3--| 
G|-0-2-----2--2-2-2-2-|-0-2-----2-2-2-2-2--| 
D|-0-2-2-2-2--2-0-0-0-|-0-2-2-2-2-0-0-0-0--| 
A|-0-0-2-2-0--0-0-0-0-|-0-0-2-2-0-0-0-0-0--| 
E|-3---0-0------------|-3---0-0------------| 
 

Ponte para Refrão 

E|------3-3---| 
B|------3-3---| 
G|------0-0---| 
D|-2-2--0-0---| 
A|-2-2--2-2---| 
E|-0-0--3-3---| 
share this page

See Also: