E-Chords
Airbourne

Chewin' The Fat(Tabs)

Airbourne

roll up this ad to continue

Key: G
Intro: 
E|----------------------| 
B|-8-8-----10-10--------| 
G|-7-7-7-7-9--9--9-9----| 
D|-----7-7-------9-9----| 
A|----------------------| 
E|----------------------| 

 Riff 1: 

      G    D    A5   Em              G    D    A 
E|----3-3--2-2--------------------|-3-3--2-2------| 
B|----3-3--3-3--------------------|-3-3--3-3--2-2-| 
G|----0-0--2-2--2-2---------------|-0-0--2-2--2-2-| 
D|----0-0--0-0--2-2--2-2----------|-0-0--0-0--2-2-| 
A|----2-2-------0-0--2-2----------|-2-2-------0-0-| 
E|----3-3------------0-0--3br-0---|-3-3-----------| 

 Riff 2:  Verso 

E|---------------------------------------| 
B|------------------3---3---3------------| 
G|--4-2-4-2-4-2-2---2-2-2-2-2-2-2--------| -2 
D|--2-2-2-2-2-2-2---0-2-0-2-0-2-2--------|vezes 
A|--0-0-0-0-0-0-0-----0---0---0-0--------| 
E|---------------------------------------| 

Riff 3:  2ª Parte do Verso 

E|-------------------------------------| 
B|-------------------------------------| 
G|--4-4-4-2--2-4-4-4-2--2-4-4-2--------| 
D|--2-2-2-2--2-2-2-2-2--2-2-2-2--------| 
A|--0-0-0-0--0-0-0-0-0--0-0-0-0--------| 
E|-------------------------------------| 

E|-------------------------------------| 
B|--3-3-3------3-3-3------3-3----------| 
G|--2-2-2-2--2-2-2-2-2--2-2-2-2--------| 
D|--0-0-0-2--2-0-0-0-2--2-0-0-2--------| 
A|--------0--2-------0--0-----0--------| 
E|-------------------------------------| 

 Pré-Refrão: 

E|----------------------------------------| 
B|--3---3---3-----------------------------| 
G|--2-2-2-2-2-2--2222222222222------------| 
D|--0-2-0-2-0-2--2222222222222----2-------| 
A|----0---0---0--0000000000000----2-------| 
E|------------------------------3-0-------| 

 Refrão: 

      G    D    A5   Em              G    D    A 
E|----3-3--2-2--------------------|-3-3--2-2------| 
B|----3-3--3-3--------------------|-3-3--3-3--2-2-| 
G|----0-0--2-2--2-2---------------|-0-0--2-2--2-2-| 
D|----0-0--0-0--2-2--2-2----------|-0-0--0-0--2-2-| 
A|----2-2-------0-0--2-2----------|-2-2-------0-0-| 
E|----3-3------------0-0--3br-0---|-3-3-----------| 

 Solo: 

E|-12--12--12-------| 
B|-15b-15b-15b------| 
G|------------------| 
D|------------------| 
A|------------------| 
E|------------------| 

E|-----------------------------------| 
B|--8-8--7-7--10-10--9-9--10-9-7-----| 
G|--7-7--7-7--9--9---9-9-------------|  2 
D|-----------------------------------|vezes 
A|-----------------------------------| 
E|-----------------------------------| 

E|--1012b-12b-12b-12----14b-14b-15-14-12---17b-17b-17b---| 
B|-------------------15----------------------------------| 
G|-------------------------------------------------------| 
D|-------------------------------------------------------| 
A|-------------------------------------------------------| 
E|-------------------------------------------------------| 
share this page

See Also: