E-Chords
Airbag

White Walls(Tabs)

Airbag

Key: Em
Guitar 1 
Clean and Delayed Guitar 
This Is the Picking And Strumming For The Song. 
     Em      D      C      C 
e|----2------2------3------3-| 
B|----0------3------1------1-| 
G|----0----2-2------0------0-| 
D|----2----0-0------2----2-2-| 
A|----2-----------3-3---3--3-| 
E|-0-------------------------| 


----------------------------------------------- 
verse 1 
******** 
Em                  D      C 
Tall white walls. A sea of pain. 
Em               D              C 
I can't reach or make things go away. 
  Em            Em     C                       Am 
I try to see. I try to fight. But nothing ever stays the same. 
      F  C 
Ever     stays the same. 


2nd Guitar comes in, slightly distorted.  1st guitar continues 
00:57 
e|------------------|---------------s---------------------| 
B|-Em---D---C-------|-Em---D---C---8\10--Distorted Guitar-| 
G|------------------|-------------------------------------| 
D|---------------s--|---------------s---------------------| 
A|--------------3\5-|--------------3\5---Clean Guitar-----| 
E|------------------|-------------------------------------| 


----------------------------------------------- 
verse 2 
******** 
Em                   D  C 
Do you know what I keep inside 
  Em                          D        C 
A fear that holds me back and drags me down. 
    Em                          D     C 
And as these walls are closing in I'm losing you. 
                    Am                   F  
'Cause nothing ever stays the same. Ever   stays the same. 


Small Picking Pattern 
01:45 
  Am                          Fmaj 
e|-------0-----|-------0-----|-------3-----|-------3-----| 
B|---------1---|---------1---|-----1---1---|-----1---1---| 
G|-----2-----2-|-----2-----2-|---2-------2-|---2-------2-| 
D|---2---------|---2---------|-3-----------|-3-----------| 
A|-0-----------|-0-----------|-------------|-------------| 
E|-------------|-------------|-------------|-------------| 


----------------------------------------------- 
01:55 
SMALL SOLO - Am G F X4 
*********** 
  GUITAR 1 
e|--b-----s------|---p----b-----s------|--b--rp-----b----h----brp------|----| 
B|-12-12--\-8-10-|-12-10-12-12--\-8-10-|-12----10--13--13-15-15--13----|----| 
G|---------------|---------------------|----------------------------14-|----| 
D|---------------|---------------------|-------------------------------|----| 
A|---------------|---------------------|-------------------------------|----| 
E|---------------|---------------------|-------------------------------|----| 
 |                                                                          | 
 |GUITAR 2                                                                  | 
e|---------------------------------------------------------------------|--b-| 
B|---------------------------------------------------------------------|-13-| 
G|---------------------------------------------------------------------|----| 
D|---------------------------------------------------------------------|----| 
A|---------------------------------------------------------------------|----| 
E|---------------------------------------------------------------------|----| 


  GUITAR 1 
     h 
e|-12-15---b-rp-------s------|--br-| 
B|--------15---13-12--\-8-10-|-12--| 
G|---------------------------|-----| 
D|---------------------------|-----| 
A|---------------------------|-----| 
E|---------------------------|-----| 
 |                                 | 
 |GUITAR 2                         | 
e|---------------------------------| 
B|--------13-----------------------| 
G|---------------------------------| 
D|---------------------------------| 
A|---------------------------------| 
E|---------------------------------| 

----------------------------------------------- 
BREAK - Am F G X2 
****** 
Spacy Bit 
----------------------------------------------- 
BRIDGE 
******* 
  Am 
I feel so tired now.  
    G         F 
Too small for you to see  
       Am 
If you cross this line 
       G             F 
you'll lose all your memories. 


----------------------------------------------- 
03:11 - BASS 
BREAK - Am C F  

03:30 
e|-----------|-----------|-----------|-----------|--------------------------------s----------| 
B|-13--13-13-|-13--13-13-|-12--12-12-|-----------|-10--10-10--10--10-10--10--10-10\12--12-12-| 
G|-----------|-----------|-----------|-12--12-12-|-------------------------------------------| 
D|-----------|-----------|-----------|-----------|-------------------------------------------| 
A|-----------|-----------|-----------|-----------|-------------------------------------------| 
E|-----------|-----------|-----------|-----------|-------------------------------------------| 


e|-----------|-----------|-----------|-----------|------------------------------| 
B|-13--13-13-|-13--13-13-|-12--12-12-|-----------|-10--10-10--10--10-10--10--10-| 
G|-----------|-----------|-----------|-12--12-12-|------------------------------| 
D|-----------|-----------|-----------|-----------|------------------------------| 
A|-----------|-----------|-----------|-----------|------------------------------| 
E|-----------|-----------|-----------|-----------|------------------------------| 


----------------------------------------------- 
03:49 
SOLO - Am C F D 
***** 
e|--b----rbp---|---h---15-------br-s-|--------------------------|----------------------| 
B|-15---15--13-|-12-13----13-12----\-|--s--8-10-10---8--p--b--r-|---------brp----------| 
G|-------------|---------------------|-7\9-------------7-5-7----|-----5-7-7--5---5-7-7-| 
D|-------------|---------------------|--------------------------|-5-7----------7-------| 
A|-------------|---------------------|--------------------------|----------------------| 
E|-------------|---------------------|--------------------------|----------------------| 


e|-------------|-------------|------------s---|---p---------------|--b---brp------| 
B|-13-12-------|-13-12-------|-13-12-13-13\15-|-13-12----12-------|-15--15--13-15-| 
G|-------12----|-------12----|----------------|-------14----12-14-|---------------| 
D|----------14-|----------14-|----------------|-------------------|---------------| 
A|-------------|-------------|----------------|-------------------|---------------| 
E|-------------|-------------|----------------|-------------------|---------------| 

              s        brb  rbp 
e|----15----15\17-17--17---17--15-17-|---s--20~~~~-20~~~~--20-19---s--------br-| 
B|-13----13--------------------------|-13\-----------------------20\-15-13-12--| 
G|-----------------------------------|-----------------------------------------| 
D|-----------------------------------|-----------------------------------------| 
A|-----------------------------------|-----------------------------------------| 
E|-----------------------------------|-----------------------------------------| 


e|-------------|--------------------------------------|-------------|-------------| 
B|-8-b--rbp----|------------brp-----------p------brp--|-------------|-------------| 
G|---7--7--5-7-|--s---5-7-5-7--5---5-7-5-7-5-7---7--5-|-5-----------|-5-----------| 
D|-------------|-5\7-------------7--------------------|-5-7-5-5-7-5-|-5-7-5-5-7-5-| 
A|-------------|--------------------------------------|-------------|-------------| 
E|-------------|--------------------------------------|-------------|-------------| 
                                                                          
                                          brp   b      rbp            
e|----------------------5--p----s---8-10-10--8-10---|-10--8--br-s-| 
B|-------brp--------b-5---8-5--8\10-----------------|-------12--\-| 
G|-5---5-7--5---5-7-7-------------------------------|-------------| 
D|-5-7--------7-------------------------------------|-------------| 
A|--------------------------------------------------|-------------| 
E|--------------------------------------------------|-------------| 

       PH  
    b   b  PH  PH                                               brp    brp 
e|-10--10--10--8--7-8-7-b-----------------|-----5--p--b-|-8-10-10--8-10---8-|------s---| 
B|----------------------8-8--p----b--p----|-b-5---8-5-8-|-------------------|-8---8\10-| 
G|--------------------------7-5---7-7-5---|-7-----------|-------------------|---9------| 
D|------------------------------7-------7-|-------------|-------------------|----------| 
A|----------------------------------------|-------------|-------------------|----------| 
E|----------------------------------------|-------------|-------------------|----------| 


e|--s-----------| 
B|-8\10-8-------| 
G|--------7-5---| 
D|------------7-| 
A|--------------| 
E|--------------|  

roll up this ad to continue

share this page

See Also: