E-Chords
Airbag

Una Hora A Tokyo(Tabs)

Airbag

INTRO (AL PRINCIPIO HAY UN INTRO DE GUITARRA Y BAJO QUE SE ESCUCHA MUY DESPACIO): 
1---------------------------------------I 
2---------------------------------------I 
3---------------------------------------I 
4---------------------------------------I 
5--7-7-5--7-7-7-5-5---7-7-5--7-7-7-5-5--I 
6---------------------0-----------------I 

ESTE ES EL INTRO DE LA GUITARRA: 
1------------------------I 
2------------------------I 
3------------------------I 
4--2--2--6--6--7---6--4--I 
5--2--2--6--6--7---6--4--I 
6--0--0--4--4--5---4--2--I 

TEMA: 
DESPUES DE CADA VERSO VA ESTO: 
1--------------I 
2--------------I 
3--------------I 
4--6--7--6--2--I 
5--6--7--6--2--I 
6--4--5--4--0--I 

ESO ES LO QUE SAQUE HASTA AHORA 

roll up this ad to continue

share this page

See Also: