E-Chords
Airbag

Surveillence Part 1(Tabs)

Airbag

GUITAR COMES IN AT 
01:00 
e|---------------|---------------|---------------|---------------| 
B|---------7-----|---------7-----|---------7-----|---------7-----| 
G|-----9-----9---|-----9-----9---|-----9-----9---|-----9-----9---| 
D|---9---9-----9-|---9---9-----9-|---9---9-----9-|---9---9-----9-| 
A|-7-------------|-7-------------|-7-------------|-7-------------| 
E|---------------|---------------|---------------|---------------| 


e|-------------------|-------------------|-------------------|-------------------| 
B|------------8------|------------8------|------------8------|------------8------| 
G|-------7------7----|-------7------7----|-------7------7----|-------7------7----| 
D|----10---10-----10-|----10---10-----10-|----10---10-----10-|----10---10-----10-| 
A|-10----------------|-10----------------|-10----------------|-10----------------| 
E|-------------------|-------------------|-------------------|-------------------| 


01:18 
e|---------------|---------------|---------------|---------------| 
B|---------7-----|---------7-----|---------7-----|---------7-----| 
G|-----9-----9---|-----9-----9---|-----9-----9---|-----9-----9---| 
D|---9---9-----9-|---9---9-----9-|---9---9-----9-|---9---9-----9-| 
A|-7-------------|-7-------------|-7-------------|-7-------------| 
E|---------------|---------------|---------------|---------------| 


e|-------------------|-------------------|-------------------|-------------------| 
B|------------8------|------------8------|------------8------|------------8------| 
G|-------7------7----|-------7------7----|-------7------7----|-------7------7----| 
D|----10---10-----10-|----10---10-----10-|----10---10-----10-|----10---10-----10-| 
A|-10----------------|-10----------------|-10----------------|-10----------------| 
E|-------------------|-------------------|-------------------|-------------------| 


01:35 
e|---------------|---------------|---------------|---------------| 
B|---------7-----|---------7-----|---------7-----|---------7-----| 
G|-----9-----9---|-----9-----9---|-----9-----9---|-----9-----9---| 
D|---9---9-----9-|---9---9-----9-|---9---9-----9-|---9---9-----9-| 
A|-7-------------|-7-------------|-7-------------|-7-------------| 
E|---------------|---------------|---------------|---------------| 


e|-------------------|-------------------|-------------------|-------------------|----------| 
B|------------8------|------------8------|------------8------|------------8------|----------| 
G|-------7------7----|-------7------7----|-------7------7----|-------7------7----|----------| 
D|----10---10-----10-|----10---10-----10-|----10---10-----10-|----10---10-----10-|----------| 
A|-10----------------|-10----------------|-10----------------|-10----------------|-7-~~~~~~-| 
E|-------------------|-------------------|-------------------|-------------------|----------| 



ENJOY................. 

roll up this ad to continue

share this page

See Also: