E-Chords
Airbag

All Rights Removed(Tabs)

Airbag

Key: F#m
Intro 

(Chord Progression shown only, Strumming pattern NOT shown) 
e|---------------------------------------------------------------------------| x4 
B|---------------------------------------------------------------------------| x4 
G|---11----7-----9-----------------------------------------------------------| x4 
D|---9-----9-----9-----12----10----12----------------------------------------| x4 
A|---7-----7-----7-----10----10----10----------------------------------------| x4 
E|---7-----7-----7-----8-----8-----8-----------------------------------------| x4 

Then: 
e|---------------------------------------------------------------------------| x2 
B|---------------------------------------------------------------------------| x2 
G|---------------------------------------------------------------------------| x2 
D|----12-----10----12----10--------------------------------------------------| x2 
A|----12-----10----10----10--------------------------------------------------| x2 
E|----10-----8-----8-----8---------------------------------------------------| x2 


Verse 

e|---7~------10---7----------------------------------2h3--2------------------------| 
B|---7~------7----7----------------------------------------------------------------| 
G|---7~------7----7-----14--12--11--7--7b9--4~----------------2~--2/4~-------------| 
D|---9~------9----9----------------------------------------------------------------| 
A|---7~----------------------------------------------------------------------------| 
E|---7~----------------------------------------------------------------------------| 

e|---10---7------------------------------------------------------------------------| 
B|---7----7----------------------------------10brb12---8p7~------------------------| 
G|---7----7------14--12--11--7--7b9--4~--------------------------------------------| 
D|---9----9------------------------------------------------------------------------| 
A|---------------------------------------------------------------------------------| 
E|---------------------------------------------------------------------------------| 

   *2:04*      *2:09* 
e|--(7)~---------(7)---------------------------------------------------------------| 
B|--(7)~---------(7)---------------------------------------------------------------| 
G|---11~----------11-7------------------7------12----------12--7-------------------| 
D|---9~-----------9----9------------10-----10--------------10-----10---------------| 
A|---7~-----------7-------------10-------------------------10----------------------| 
E|---7~-----------7----------------------------------------8-----------------------| 

     2:19 
e|--(7)~----10--7------------------------------------------------------------------| 
B|--(7)~----7---7------7---------------------10~-----------------------------------| 
G|---11~----7---7---------7----------9-------9~---------7--------------------------| 
D|---9~-----9---9------------9-------10-----(7)-------7----------------------------| 
A|---7~------------------------------10---------------------10~--------------------| 
E|---7~------------------------------8---------------------------------------------| 


Chorus 

But don't you... *2:34*  (Strumming pattern NOT shown) 
e|---------------------------------------------------------------------------| x2 
B|---------------------------------------------------------------------------| x2 
G|----------------11-----9---------------------------------------------------| x2 
D|----------------12-----10--------------------------------------------------| x2 
A|----------------12-----10--------------------------------------------------| x2 
E|----------------10-----8---------------------------------------------------| x2 

I think **Guitar 2** fills in with arpeggios around these chords: 
e|---------------------------------------------------------------------------| 
B|-----10---------8----------------------------------------------------------| 
G|-----9----------7----------------------------------------------------------| 
D|-----12---------10---------------------------------------------------------| 
A|-----12---------10---------------------------------------------------------| 
E|---------------------------------------------------------------------------| 


1st Solo   
(Strumming pattern NOT shown) 

e|---------------------------------------------------------------------------| x2 
B|---------------------------------------------------------------------------| x2 
G|---------14---12---11---14---19---16---19----------------------------------| x2 
D|---------x----x----x----x----x----x----x-----------------------------------| x2 
A|----/12--12---10---9----12---17---14---17----------------------------------| x2 
E|---------------------------------------------------------------------------| x2 


   *3:51* 
e|---------------------------------------------------------------------------| x2 
B|---------------------------------------------------------------------------| x2 
G|---11-----7----9-----------------------------------------------------------| x2 
D|---9------9----9-----------------------------------------------------------| x2 
A|---7------7----7-----------------------------------------------------------| x2 
E|---7------7----7-----------------------------------------------------------| x2 

   *4:06* 
e|---------------------------------------------------------------------------| 
B|---------------------------------------------------------------------------| 
G|------------7------12---------------7------12----12------------------------| 
D|--------10-----10---------------10-----10--------10------------------------| 
A|----10----------------------10-------------------10------------------------| 
E|---------------------------------------------------------------------------| 

e|---------------------------------------------------------------------------| 
B|---------------------------------------------------------------------------| 
G|----------7-----11--------------7------11----------------------------------| 
D|-------9-----9---------------9-----9---------------------------------------| 
A|----7---------------------7------------------------------------------------| 
E|---------------------------------------------------------------------------| 

e|---------------------------------------------------------------------------| 
B|---------------------------------------------------------------------------| 
G|--14--12--11--7----------7------12--------------7------12------------------| 
D|---------------------10-----10--------------10-----10----------------------| 
A|-----------------10---------------------10---------------------------------| 
E|---------------------------------------------------------------------------| 


2nd Solo  

    *4:29*    (Strumming pattern NOT shown) 
e|---------------------------------------------------------------------------| 
B|---------------------------------------------------------------------------| 
G|----------14---13---14---16---14---16---17---16----------------------------| 
D|----------x----x----x----x----x----x----x----x-----------------------------| 
A|----/12---12---11---12---14---12---14---15---14----------------------------| 
E|---------------------------------------------------------------------------| 

e|---------------------------------------------------------------------------| 
B|---------------------------------------------------------------------------| 
G|---------14---13---14---16---17---19---21---24-----------------------------| 
D|---------x----x----x----x----x----x----x----x------------------------------| 
A|---------12---11---12---14---15---17---19---22-----------------------------| 
E|---------------------------------------------------------------------------| 

   *5:00* 
e|------------------------------------------------------------------------------| 
B|----19--15--12-------------------19--15--12--------------15--15---------------| 
G|----------------14--14/16~-------------------14--14/16~------14b16------------| 
D|---------------------------------------------------------------------16p14h16-| 
A|------------------------------------------------------------------------------| 
E|------------------------------------------------------------------------------| 

e|---------------------------------------------------------------------------| 
B|---------------------------------------------------------------------------| 
G|----------------------------------------------------------11-11~~----------| 
D|---16br17--12~---12h14-14--------------------------12/14-------------------| 
A|----------------------------12\----------10h12/14--------------------------| 
E|----------------------------------10h12------------------------------------| 


e|--------------------------------------------------------------------------------| 
B|-----------------------------15~-15---------------------------------------12~---| 
G|--11h12/14~---14p12--14/16~------14b16~---14p12h14~----11br12----------------11-| 
D|---------------------------------------------------------------12--9~-----------| 
A|--------------------------------------------------------------------------------| 
E|--------------------------------------------------------------------------------| 

Chord progression from 5:31 to 6:12: 
F#m - C - F#m - C - D - C - D - C - D - C - D - G6/E 


Outro 

 *6:12* (fades in)     (Chord Progression shown only Strumming pattern NOT shown) 
e|---------------------------------------------------------------------------| x4 
B|---------------------------------------------------------------------------| x4 
G|---11----7-----9-----------------------------------------------------------| x4 
D|---9-----9-----9-----12----10----12----------------------------------------| x4 
A|---7-----7-----7-----10----10----10----------------------------------------| x4 
E|---7-----7-----7-----8-----8-----8-----------------------------------------| x4 

But don't you... *7:13*  (Strumming pattern NOT shown) 
e|---------------------------------------------------------------------------| x2 
B|---------------------------------------------------------------------------| x2 
G|----------------11-----9---------------------------------------------------| x2 
D|----------------12-----10--------------------------------------------------| x2 
A|----------------12-----10--------------------------------------------------| x2 
E|----------------10-----8---------------------------------------------------| x2 

I think **Guitar 2** fills in with arpeggios around these chords (again): 
e|---------------------------------------------------------------------------| 
B|-----10---------8----------------------------------------------------------| 
G|-----9----------7----------------------------------------------------------| 
D|-----12---------10---------------------------------------------------------| 
A|-----12---------10---------------------------------------------------------| 
E|---------------------------------------------------------------------------| 


Outro Solo  

    *7:44* 
e|-----------------------------------------------------------------------------| 
B|-----------------------------------------------------------------------------| 
G|---------14---12---11---14---19---16---19---14---12---11---14---19---21---19-| 
D|---------x----x----x----x----x----x----x----x----x----x----x----x----x----x--| 
A|---/12---12---10---9----12---17---14---17---12---10---9----12---17---19---17-| 
E|-----------------------------------------------------------------------------| 

e|-----------------------------------------------------------------------------| 
B|-----------------------------------------------------------------------------| 
G|----14---12---11---14---19---16---19---21---14---12---11---14---19---16---19-| 
D|----x----x----x----x----x----x----x----x----x----x----x----x----x----x----x--| 
A|----12---10---9----12---17---14---17---19---12---10---9----12---17---14---17-| 
E|-----------------------------------------------------------------------------| 

It's pretty hard to make out but *Guitar 2* plays something like this at *8:15* 
e|----------------------------------------------------------10----10------------| 
B|---------------10-----------------------------------------10b12-10b12---------| 
G|----9b11~hold-----9b11-9-7-9br11-7~-----9b11--9p7h9~--------------------9h11~-| 
D|------------------------------------------------------------------------------| 
A|------------------------------------------------------------------------------| 
E|------------------------------------------------------------------------------| 
Can't make out the rest of that second guitar :( 


************************************ 

| x    Dead note 
| (n)  Ghost note 
| h    Hammer-on 
| p    Pull-off 
| b    Bend 
| br   Bend release 
| /    Slide up 
| \    Slide down 
| ~    Vibrato  

************************************ 

roll up this ad to continue

share this page

See Also: