E-Chords
Ahmet Kanneci

Aygiz - Ay Giz(Tabs)

Ahmet Kanneci


     Meni attin ay giz ay giz atasa       

E||------------------------------------0--0----|--2----3--2--0----3--2--| 
B||---------------------------------0----------|------------------2-----| 
G||--------------------------------------------|-------4----------------| 
D||--------------------------------------------|------------------2-----| 
A||--------------------------------------------|------------------------| 
E||--0-----------------------------------------|-------0----------------| 


                         Meni attin ay giz ay giz atasa    

--0----7------6--7----|------------------------------------0--0----| 
-------7--------------|---------------------------------0----------| 
----------------------|--------------------------------------------| 
----------------------|--------------------------------------------| 
-------9--------------|--------------------------------------------| 
-------7--------------|--0-----------------------------------------| 


--2----3-5-3-2--0----3--2--|--0----7------6-9-7----| 
---------------------2-----|-------7---------------| 
-------4-------------------|-----------------------| 
---------------------2-----|-----------------------| 
---------------------------|-------9---------------| 
-------0-------------------|-------7---------------| 


           Beklemektir esgin daim pese   

-----------7---------------------------7--6----|--7----9----10--9--7----| 
-----------------------------------------------|------------------------| 
-----------------------------------------------|------------------------| 
-----------------------------------------------|------------------------| 
-----------------------------------------------|------------------------| 
-----------------------------------------------|------------------------| 


--10--9--7----10--9--7--6--|--7-----------------| 
---------------8-----------|--------------------| 
---------------9-----------|--------------------| 
---------------8-----------|--9-----------------| 
---------------------------|--------------------| 
---------------------------|-----------0--------| 


       Atacagdin meni sevdin söyle bes niçin  

-------7-------------------------------------7--7----7----| 
-------8-------------------------------------8--8----8----| 
----------------------------------------------------------| 
----------------------------------------------------------| 
----------------------------------------------------------| 
--L-------------------------------------------------------| 


------7--8--7--5--3--2--3--|--5--------4-7-5------| 
--10-----------------------|--5-------------------| 
---9--7--9--7--5--4--2--4--|--5-------------------| 
--10-----------------------|--7-------------------| 
---0-----------0-----------|--0-------------------| 
---------------------------|----------------------| 


            Doldur eski serbet kimin ver içim   

------------5---------------------------------5--5----|--5----| 
------------------------------------------------------|--5----| 
------------------------------------------------------|--5----| 
------------------------------------------------------|--4----| 
------------------------------------------------------|-------| 
--3----2----------------------------------------------|-------| 


---------7-------------------|------------------------| 
--8--10-----10--8--7------7--|--8------7-10-8---------| 
---------7-------------9-----|------------------------| 
--9-------------9---------7--|--9----------------0----| 
--7-------------7-----10-----|--7---------------------| 
--0--------------------------|------------------------| 


       Söyle söyle sene beyle n'oldu yar 

-------3---------------------------------3--3--2--0----| 
-------5-----------------------------------------------| 
-------3-----------------------------------------------| 
-------5-----------------------------------------------| 
--4----------------------------------------------------| 
-------------------------------------------------------| 

  
--------2--5--3--2--------|--0------2--3-2-3-5-7----|-------7--7--7----10-8-7--| 
--4--5--------------5--4--|--0----------------------|-------8--8--8-----8------| 
--------------------------|--0----------------------|--------------------------| 
--------------------------|-------------------------|--------------------------| 
--2-----------------------|-------------------------|--------------------------| 
--------------------------|--0----------------------|--0-----------------------| 


------7--8--7--5--3--2--3--|--5------4-7-5---------|-------5--5--5----5----| 
--10-----------------------|--5--------------------|------------------5----| 
------7--9--7--5--4--2--4--|--5--------------------|------------------5----| 
--10-----------------------|-----------------------|------------------4----| 
---0-----------0-----------|--0--------------------|-----------------------| 
---------------------------|------------------3----|--2--------------------| 


---------7-------------------|------------------------|-------3--3--3--2--0----| 
--8--10-----10--8--7------7--|--8------7-10-8---------|-------5----------------| 
---------7-------------9-----|------------------------|-------3----------------| 
--9-------------9--7------7--|--9----------------0----|-------5----------------| 
--7-------------7-----10-----|--7---------------------|--4---------------------| 
--0--------------------------|------------------------|------------------------| 


--------2--5--3--2--------|--0----------------| 
--4--5--------------5--4--|--0----------------| 
--------------------------|--0----------------| 
--------------------------|-------------------| 
--2-----------------------|-------------------| 
--------------------------|--0----------------| 


       Atacagdin meni sevdin söyle bes niçin     

-------7-------------------------------------7--7----7----| 
-------8-------------------------------------8--8----8----| 
----------------------------------------------------------| 
----------------------------------------------------------| 
----------------------------------------------------------| 
--0-------------------------------------------------------| 

   
------7--8--7--5--3--2--3--|--5------4-7-5---------| 
--10-----------------------|--5--------------------| 
---9--7--9--7--5--4--2--4--|--5--------------------| 
--10-----------------------|--7--------------------| 
---0-----------0-----------|--0--------------------| 
---------------------------|------------------3----| 


       Doldur eski serbet kimin ver içim      

-------5---------------------------------5--5----5----| 
-------------------------------------------------5----| 
-------------------------------------------------5----| 
-------------------------------------------------4----| 
------------------------------------------------------| 
--2---------------------------------------------------| 


---------7-------------------|------------------------| 
--8--10-----10--8--7------7--|--8------7-10-8---------| 
---------7-------------9-----|------------------------| 
--9-------------9---------7--|--9----------------0----| 
--7-------------7-----10-----|--7---------------------| 
--0--------------------------|------------------------| 


       Söyle söyle sene beyle n'oldu yar  

-------3---------------------------------3--3--2--0----| 
-------5-----------------------------------------------| 
-------3-----------------------------------------------| 
-------5-----------------------------------------------| 
--4----------------------------------------------------| 
-------------------------------------------------------| 


--------2--5--3--2--------|--0------2--3-2-3-5-7----| 
--4--5--------------5--4--|--0----------------------| 
--------------------------|--0----------------------| 
--------------------------|-------------------------| 
--2-----------------------|-------------------------| 
--------------------------|--0----------------------| 


       Atacagdin meni sevdin söyle bes niçin  

-------7-------------------------------------7--7----7----| 
-------8-------------------------------------8--8----8----| 
----------------------------------------------------------| 
----------------------------------------------------------| 
----------------------------------------------------------| 
--0-------------------------------------------------------| 


------7--8--7--5--3--2--3--|--5------4-7-5---------| 
--10-----------------------|--5--------------------| 
---9--7--9--7--5--4--2--4--|--5--------------------| 
--10-----------------------|--7--------------------| 
---0-----------0-----------|--0--------------------| 
---------------------------|------------------3----| 


       Doldur eski serbet kimin ver içim      

-------5---------------------------------5--5----5----| 
-------------------------------------------------5----| 
-------------------------------------------------5----| 
-------------------------------------------------4----| 
------------------------------------------------------| 
--2---------------------------------------------------| 


---------7-------------------|------------------------| 
--8--10-----10--8--7------7--|--8------7-10-8---------| 
---------7-------------9-----|------------------------| 
--9-------------9---------7--|--9----------------0----| 
--7-------------7-----10-----|--7---------------------| 
--0--------------------------|------------------------| 


       Söyle söyle sene beyle n'oldu yar  

-------3---------------------------------3--3--2--0----| 
-------5-----------------------------------------------| 
-------3-----------------------------------------------| 
-------5-----------------------------------------------| 
--4----------------------------------------------------| 
-------------------------------------------------------| 


                                      Çagiriram Gel...  

--------2--5--3--2--------|--0-------------------------0----| 
--4--5--------------5--4--|--0-------------------------0----| 
--------------------------|--0-------------------------0----| 
--------------------------|---------------------------------| 
--2-----------------------|---------------------------------| 
--------------------------|--0--------0---------------------| 


  Muting Normal            
  
--------------------12--12--12-----12--|----------------------| 
----------------12---------------------|----------------------| 
--------------------------------7------|-------0--------------| 
---------------------------------------|-------2--------------| 
---------------------------------------|--2---------2---------| 
--0------------------------------------|-----------------0----| 


   Muting            

--12-----12-------12---------|----------------------| 
------------------------7----|-------3--------------| 
-------------7---------------|-------4--------------| 
-----------------------------|--4---------4---------| 
-----------------------------|----------------------| 
-----------------------------|-----------------0----| 


  Muting                          

----------------------12----|--------------------------------| 
----------------------------|-------1------------------------| 
--7------7-------7----------|-------2------------------------| 
----------------------------|--2-----------------------------| 
------------9---------------|--------------------------------| 
----------------------------|------------3--------------2----| 

2 hand muting - Çift el muting 
  17 17 17   17   17      15 17 17 17 15 17 17 17    15 17 17 17 17 15 17 17 

-----------------------|--------------------------|--------------------------| 
-----------------------|--3-----------3-----------|--3--------------3--------| 
--5--5--5----5----4----|-----5--5--4-----5--5--4--|-----5--5--4--5-----5--4--| 
-----------------------|--------------------------|--------------------------| 
-----------------------|--------------------------|--------------------------| 
-----------------------|--------------------------|--------------------------| 


----------------------| 
----------------------| 
--4-------------------| 
----------------------| 
--2----0--------------| 
------------3----2----| 


       Atacagdin meni sevdin söyle bes niçin   

-------7-------------------------------------7--7----7----| 
-------8-------------------------------------8--8----8----| 
----------------------------------------------------------| 
----------------------------------------------------------| 
----------------------------------------------------------| 
--0-------------------------------------------------------| 


------7--8--7--5--3--2--3--|--5------4-7-5---------| 
--10-----------------------|--5--------------------| 
---9--7--9--7--5--4--2--4--|--5--------------------| 
--10-----------------------|--7--------------------| 
---0-----------0-----------|--0--------------------| 
---------------------------|------------------3----| 


       Doldur eski serbet kimin ver içim   
  
-------5---------------------------------5--5----5----| 
-------------------------------------------------5----| 
-------------------------------------------------5----| 
-------------------------------------------------4----| 
------------------------------------------------------| 
--2---------------------------------------------------| 


---------7-------------------|------------------------| 
--8--10-----10--8--7------7--|--8------7-10-8---------| 
---------7-------------9-----|------------------------| 
--9-------------9---------7--|--9----------------0----| 
--7-------------7-----10-----|--7---------------------| 
--0--------------------------|------------------------| 


       Söyle söyle sene beyle n'oldu yar   

-------3---------------------------------3--3--2--0----| 
-------5-----------------------------------------------| 
-------3-----------------------------------------------| 
-------5-----------------------------------------------| 
--4----------------------------------------------------| 
-------------------------------------------------------| 


--------2--5--3--2--------|--0------2--3-2-3-5-7----| 
--4--5--------------5--4--|--0----------------------| 
--------------------------|--0----------------------| 
--------------------------|-------------------------| 
--2-----------------------|-------------------------| 
--------------------------|--0----------------------| 


       Atacagdin meni sevdin söyle bes niçin     

-------7-------------------------------------7--7----7----| 
-------8-------------------------------------8--8----8----| 
----------------------------------------------------------| 
----------------------------------------------------------| 
----------------------------------------------------------| 
--0-------------------------------------------------------| 


------7--8--7--5--3--2--3--|--5------4-7-5---------| 
--10-----------------------|--5--------------------| 
---9--7--9--7--5--4--2--4--|--5--------------------| 
--10-----------------------|--7--------------------| 
---0-----------0-----------|--0--------------------| 
---------------------------|------------------3----| 


       Doldur eski serbet kimin ver içim  

-------5---------------------------------5--5----5----| 
-------------------------------------------------5----| 
-------------------------------------------------5----| 
-------------------------------------------------4----| 
------------------------------------------------------| 
--2---------------------------------------------------| 


---------7-------------------|------------------------| 
--8--10-----10--8--7------7--|--8------7-10-8---------| 
---------7-------------9-----|------------------------| 
--9-------------9---------7--|--9----------------0----| 
--7-------------7-----10-----|--7---------------------| 
--0--------------------------|------------------------| 


       Söyle söyle sene beyle n'oldu yar   

-------3---------------------------------3--3--2--0----| 
-------5-----------------------------------------------| 
-------3-----------------------------------------------| 
-------5-----------------------------------------------| 
--4----------------------------------------------------| 
-------------------------------------------------------| 


--------2--5--3--2--------|--0-------------0----| 
--4--5--------------5--4--|--0-------------0----| 
--------------------------|--0-------------0----| 
--------------------------|---------------------| 
--2-----------------------|---------------------| 
--------------------------|--0--------0---------| 


  Meni attin ay giz ay giz atasa     

------------------------------------0--0----|--2----3--2--0----3--2--| 
---------------------------------0----------|------------------2-----| 
--------------------------------------------|-------4----------------| 
--------------------------------------------|------------------2-----| 
--------------------------------------------|------------------------| 
--0-----------------------------------------|-------0----------------| 


                         Meni attin ay giz ay giz atasa  

--0----7------6--7----|------------------------------------0--0----| 
-------7--------------|---------------------------------0----------| 
----------------------|--------------------------------------------| 
----------------------|--------------------------------------------| 
-------9--------------|--------------------------------------------| 
-------7--------------|--0-----------------------------------------| 


--2----3-5-3-2--0----3--2--|--0----7------6-9-7----| 
---------------------2-----|-------7---------------| 
-------4-------------------|-----------------------| 
---------------------2-----|-----------------------| 
---------------------------|-------9---------------| 
-------0-------------------|-------7---------------| 


           Beklemektir esgin daim pese  

-----------7---------------------------7--6----|--7----9----10--9--7----| 
-----------------------------------------------|------------------------| 
-----------------------------------------------|------------------------| 
-----------------------------------------------|------------------------| 
-----------------------------------------------|------------------------| 
-----------------------------------------------|------------------------| 


--10--9--7----10--9--7--6--|--7-----------------| 
---------------8-----------|--------------------| 
---------------9-----------|--------------------| 
---------------8-----------|--9-----------------| 
---------------------------|--------------------| 
---------------------------|-----------0--------| 


       Atacagdin meni sevdin söyle bes niçin         

-------7-------------------------------------7--7----7----| 
-------8-------------------------------------8--8----8----| 
----------------------------------------------------------| 
----------------------------------------------------------| 
----------------------------------------------------------| 
--L-------------------------------------------------------| 


------7--8--7--5--3--2--3--|--5------4-7-5---------| 
--10-----------------------|--5--------------------| 
---9--7--9--7--5--4--2--4--|--5--------------------| 
--10-----------------------|--7--------------------| 
---0-----------0-----------|--0--------------------| 
---------------------------|------------------3----| 


       Doldur eski serbet kimin ver içim  

-------5---------------------------------5--5----5----| 
-------------------------------------------------5----| 
-------------------------------------------------5----| 
-------------------------------------------------4----| 
------------------------------------------------------| 
--2---------------------------------------------------| 


---------7-------------------|------------------------| 
--8--10-----10--8--7------7--|--8------7-10-8---------| 
---------7-------------9-----|------------------------| 
--9-------------9---------7--|--9----------------0----| 
--7-------------7-----10-----|--7---------------------| 
--0--------------------------|------------------------| 


       Söyle söyle sene beyle n'oldu yar    

-------3---------------------------------3--3--2--0----| 
-------5-----------------------------------------------| 
-------3-----------------------------------------------| 
-------5-----------------------------------------------| 
--4----------------------------------------------------| 
-------------------------------------------------------| 


--------2--5--3--2--------|--0------2--3-2-3-5-7----|-------7--7--7----10-8-7--| 
--4--5--------------5--4--|--0----------------------|-------8--8--8-----8------| 
--------------------------|--0----------------------|--------------------------| 
--------------------------|-------------------------|--------------------------| 
--2-----------------------|-------------------------|--------------------------| 
--------------------------|--0----------------------|--------------------------| 


------7--8--7--5--3--2--3--|--5------4-7-5---------|-------5--5--5----5----| 
--10-----------------------|--5--------------------|------------------5----| 
------7--9--7--5--4--2--4--|--5--------------------|------------------5----| 
--10-----------------------|-----------------------|------------------4----| 
---0-----------0-----------|--0--------------------|-----------------------| 
---------------------------|------------------3----|--2--------------------| 


---------7-------------------|------------------------|-------3--3--3--2--0----| 
--8--10-----10--8--7------7--|--8------7-10-8---------|-------5----------------| 
---------7-------------9-----|------------------------|-------3----------------| 
--9-------------9--7------7--|--9----------------0----|-------5----------------| 
--7-------------7-----10-----|--7---------------------|--4---------------------| 
--0--------------------------|------------------------|------------------------| 


--------2--5--3--2--------|--0----------------|-------3--3--3--2--0----| 
--4--5--------------5--4--|--0----------------|-------5----------------| 
--------------------------|--0----------------|-------3----------------| 
--------------------------|-------------------|-------5----------------| 
--2-----------------------|-------------------|--4---------------------| 
--------------------------|--0----------------|------------------------| 


                             SON                 Sag El muting ile...  

--------2--5--3--2--------|--0----------------|-----------------------| 
--4--5--------------5--4--|--0----------------|-----------------------| 
--------------------------|--0----------------|-----------------------| 
--------------------------|-------------------|-----------------------| 
--2-----------------------|-------------------|-----------------------| 
--------------------------|--0----------------|-----------------------| 


                           12 12 12 12 15        Normal vurus   

-------------------|----------0--0--0-----12--|------------------------------| 
-------------------|-------0-----------3------|------------------------------| 
-------------------|--------------------------|---------------0--------------| 
-------------------|--------------------------|---------------2--------------| 
-------------------|--------------------------|--2-----------------2---------| 
-------------------|--0-----------------------|-------------------------0----| 


  12 12 15   12   15      Normal vurus                   15 15 13   15  

--0--0-------0----2----|------------------------------|------------------12----| 
--------3--------------|---------------3--------------|--3--3--1----3----------| 
-----------------------|---------------4--------------|------------------------| 
-----------------------|--4-----------------4---------|------------------------| 
-----------------------|------------------------------|------------------------| 
-----------------------|-------------------------0----|------------------------| 


  Normal Vurus                   17 17 17   17   17    

------------------------------|-----------------------| 
---------------1--------------|-----------------------| 
---------------2--------------|--5--5--5----5----4----| 
--2---------------------------|-----------------------| 
------------------------------|-----------------------| 
--------------------3----2----|-----------------------| 


  15 17 17 17 15 17 17 17    15 17 17 17 17 15 17 17  

--------------------------|--------------------------|----------------------| 
--3-----------3-----------|--3--------------3--------|----------------------| 
-----5--5--4-----5--5--4--|-----5--5--4--5-----5--4--|--4-------------------| 
--------------------------|--------------------------|----------------------| 
--------------------------|--------------------------|--2----0--------------| 
--------------------------|--------------------------|------------3----2----| 


       Atacagdin meni sevdin söyle bes niçin  

-------7-------------------------------------7--7----7----|| ...... 
-------8-------------------------------------8--8----8----|| 
----------------------------------------------------------|| 
----------------------------------------------------------|| 
----------------------------------------------------------|| 
--0-------------------------------------------------------|| 

roll up this ad to continue

share this page

See Also: