E-Chords
After Forever

My Pledge of Allegiance #1(Tabs)

After Forever

Key: E
Tuning: E 
 
 
  riff 1 (0'59')                                  x4 
 |-------------------------x3----------------------| 
 |----------5--4p5h4-------------------------------| 
 |.------------------5-4----------2-4-5--4-2------.| 
 |.-2-2-2------------------------------------5--4-.| 
 |--2-2-2------------------------------------------| 
 |--O-O-O------------------------------------------| 
    . . . 
 
  riff 2                                            x4 
 |---------------------------------------------------| 
 |---------------------------------------------------| 
 |---------------------------------------------------| 
 |-2-----------2-----------4-----------5-------3-3-3-| 
 |-2-22222-2-2-2-22222-2-2-4-44444-4-4-5-55555-3-3-3-| 
 |-0-00000-0-0-0-00000-0-0-2-22222-2-2-3-33333-1-1-1-| 
   . ..... . . . ..... . . . ..... . . . ..... . . . 
 
  riff 3 
 |-------------------------------------x3-----------------------------------| 
 |--------------------------------------------------------------------------| 
 |--------------------------------------------------------------------------| 
 |--------------------------------------------------------------------------| 
 |-(-22-222-2-222-222-)-22-22-2-3-22-3------55-555-5-555-555-55-55-5-3-55-3-| 
 |-(-00-000-0-000-000-)-00-00-0-1-00-1------33-333-3-333-333-33-33-3-1-33-1-| 
     .. ... . ... ...   .. .. .   ..        .. ... . ... ... .. .. .   .. 
 
  repeat riff 3 without () 
 
  riff 4 gtr 1 
 |----------------------------------x2-------------------------| 
 |-------------------------------------------------------------| 
 |-----------------------------------------------------------2-| 
 |-------------------------------------------------------5---2-| 
 |-2---2---2---2---222-222-222-222------222-222-222------5---0-| 
 |-0---0---0---0---000-000-000-000------000-000-000-...--3-----| 
   .   .   .   .   ... ... ... ...      ... ... ... ...  
 
  riff 4 gtr 2                      1.2.3.      4. 
 |----------------------------------------------------------------| 
 |----------------------------------------------5-4-----4---------| 
 |-4p5-2--4-0-4-------4p5-2-4-0-4-------------------5-4---5-2-4-2-| 
 |--------------2~------------------3-0-2~------------------------| 
 |----------------------------------------------------------------| 
 |----------------------------------------------------------------| 
 
  riff 3 
  riff 4 
 
  riff 5 
 |-------------------------------------------------------| 
 |-------------------------------------------------------| 
 |.-55555-55555-55555-5555555555-55555-55555-5555555555-.| 
 |.-55555-55555-55555-5555555555-55555-55555-5555555555-.| 
 |--33333-33333-33333-3333333333-33333-33333-3333333333--| 
 |-------------------------------------------------------| 
    ..... ..... ..... .......... ..... ..... .......... 
 
 |-------------------------------------------------------| 
 |-------------------------------------------------------| 
 |.-----------------------------------------------------.| 
 |.-22222-22222-22222-2222222222-22222-22222-2222222222-.|  
 |--22222-22222-22222-2222222222-22222-22222-2222222222--| 
 |--00000-00000-00000-0000000000-00000-00000-0000000000--| 
    ..... ..... ..... .......... ..... ..... .......... 
 
  riff 1  x2 
  riff 2  x4 
  riff 4  
  riff 5 

roll up this ad to continue

share this page

See Also: